Song name
# A B C D E F G H I J K L M N O P Q R S T U V W X Y Z

Sick Of It All - Its Clobberin Time tab

-------------------------------------------------------------------------------
                       IT'S CLOBBERIN' TIME - Sick Of It All
-------------------------------------------------------------------------------
Tabbed by: min0r_threat
E-mail: ngrantj@yahoo.com

Tuning: Standard

This is by ear and hopefully pretty accurate, there are no tabs of this song online.

INTRO
e|-----------------------------------------------|
B|-----------------------------------------------|
G|-----------------------------------------------|
D|-----------------------------------------------|
A|-2222-2222-2222-2222-2222-2222-2222-22-22------|
E|-0000-0000-0000-0000-0000-0000-0000-00-00------|
   ---- ---- ---- ---- ---- ---- ---- --

MAIN RIFF
e|------------------------------------------------|
B|------------------------------------------------|
G|------------------------------------------------|
D|------------------------------------------------|
A|-5-55-6-66-5-55-8-88-5-55-6-66-5-55-4-44--------|
E|-3-33-4-44-3-33-6-66-3-33-4-44-3-33-2-22--------|

OUTRO
e|-------------------------------------------------------|
B|-------------------------------------------------------|
G|-------------------------------------------------------|
D|-------------------------------------------------------|
A|--5-x-x-x-x-x-x-5-x-x-x-x-x-x-x-5-x-x-x-x-x-x-x-4------|
E|--3-x-x-x-x-x-x-3-x-x-x-x-x-x-x-3-x-x-x-x-x-x-x-2------|

SONG STRUCTURE:
INTRO
MAIN RIFF x6 (each time you play the riff the tempo goes up-listen to the song)
OUTRO

And that's it!
Tap to rate this tab
 
# A B C D E F G H I J K L M N O P Q R S T U V W X Y Z