Song name
# A B C D E F G H I J K L M N O P Q R S T U V W X Y Z

Sick Of It All - Cease Fire tab

------------------------------------------------------------------------------- 
                          CEASE FIRE - Sick Of It All 
------------------------------------------------------------------------------- 

By Paul 

e----------------------------------------------------------------------------- 
B----------------------------------------------------------------------------- 
G----------------------------------------------------------------------------- 
D------2-0-------------------2-0------------2-0-------------------3--3--3-333- 
A--0-0-----4h5-4h5p4-0---0-0------4-4---0-0-----4h5-4h5p4-0--2 --3--3--3-333--
E---------------------------------5-5--------------------------33---3--3------ 

Gtr.2 plays A G(octive) 

Verse 
e---------------------------------------------------------------------------- 
B---------------------------------------------------------------------------- 
G---------------------------------------------------------------------------- 
D----------66-2222-4444----77----------66-2222-4444-------------------------- 
A--2-44444-44-0000-2222-22-55--2-44444-44-0000-2222-2222--------------------- 
E--0-22222--------------00-----0-22222--------------0000--------------------- 

Chorus 
e---------------------------------------------------------------------------- 
B---------------------------------------------------------------------------- 
G---------------------------------------------------------------------------- 
D--55-2222------------------------------------------------------------------- 
A--33-0000-4444444444-------------------------------------------------------- 
E----------2222200022-------------------------------------------------------- 

-------------------------------------------------------------------------------
Tap to rate this tab
# A B C D E F G H I J K L M N O P Q R S T U V W X Y Z