Song name
# A B C D E F G H I J K L M N O P Q R S T U V W X Y Z

Sick Of It All - Friends Like You tab

------------------------------------------------------------------------------- 
                        FRIENDS LIKE YOU - Sick Of It All 
------------------------------------------------------------------------------- 

By:Jon Wong: jkwong@pixi.com 

INTRO & VERSE 
e|--------------------------------------------------------------------| 
B|--------------------------------------------------------------------| 
G|--------------------------------------------------------------------| 
D|-9-9-9--7-7-7-------------------------------------------------------| 
A|-7-7-7--5-5-5--7-7-7--9-9-9-----------------------------------------| 
E|---------------5-5-5--7-7-7-----------------------------------------| 

WE DON'T NEED YOU... PART: 
e|--------------------------------------------------------------------| 
B|--------------------------------------------------------------------| 
G|--------------------------------------------------------------------| 
D|-9-9-9--7-7-7--5-5-5--7-7-7-----------------------------------------| 
A|-7-7-7--5-5-5--3-3-3--5-5-5-----------------------------------------| 
E|-----------------------------------------------------X4-------------| 

WE DON'T NEED FRIENDS... PART: 
e|--------------------------------------------------------------------| 
B|--------------------------------------------------------------------| 
G|--------------------------------------------------------------------| 
D|-9-9-9--10-9--------------------------------------------------------| 
A|-7-7-7--8--7-9------------------------------------------------------| 
E|-------------7------------------------X4----------------------------| 

=============================================================================
Tap to rate this tab
 
# A B C D E F G H I J K L M N O P Q R S T U V W X Y Z