Song name
# A B C D E F G H I J K L M N O P Q R S T U V W X Y Z

Sick Of It All - Give Respect tab

------------------------------------------------------------------------------- 
                           GIVE RESPECT - Sick Of It All 
------------------------------------------------------------------------------- 

By:Jon Wong: jkwong@pixi.com 

INTRO & CHORUS 
e|-------------------------------------------------------------------| 
B|-------------------------------------------------------------------| 
G|-------------------------------------------------------------------| 
D|-2-2-2-2-----------------------------------------------------------| 
A|-2-2-2-2-5-5-5-5-7-7-7-7-7-7-7-7-7-7-7-7-7-7-7---------------------| 
E|-0-0-0-0-3-3-3-3-5-5-5-5-5-5-5-5-5-5-5-5-5-5-5---------------------| 

VERSE: 
e|-------------------------------------------------------------------| 
B|-------------------------------------------------------------------| 
G|-------------------------------------------------------------------| 
D|-9-9-9-9-----------------------------------------------------------| 
A|-7-7-7-7--9-9-8-8--------------------------------------------------| 
E|----------7-7-6-6---------------X4---------------------------------| 

=============================================================================
Tap to rate this tab
# A B C D E F G H I J K L M N O P Q R S T U V W X Y Z