Song name
# A B C D E F G H I J K L M N O P Q R S T U V W X Y Z

Sick Of It All - Pay The Price tab

------------------------------------------------------------------------------- 
                   PAY THE PRICE - Sick of it All 
------------------------------------------------------------------------------- 

By: Punk Rock Bob ( Mickey_Mouse_Is_Dead@punkhardcore.net ) 

INTRO (play at an increasing tempo) 
e|--------------------------------------------------------------------------| 
B|--------------------------------------------------------------------------| 
G|--9999-10-10-10-10-9999-12-12-12-12-9999-10-10-10-10-9999-7777------------| 
D|--9999-10-10-10-10-9999-12-12-12-12-9999-10-10-10-10-9999-7777------------| 
A|--7777-8--8--8--8--7777-10-10-10-10-7777-8--8--8--8--7777-5555------------| 
E|--------------------------------------------------------------------------| 

INTRO part2 
e|---------------------------------------------------------------------------| 
B|---- pm -- pm -- pm -------------------------------------------------------| 
G|--9-999999-9-999999-9-999999--8--------------------------------------------| 
D|--9-999999-9-999999-9-999999--8-LET RING-----------------------------------| 
A|--7-777777-7-777777-7-777777--6--------------------------------------------| 
E|---------------------------------------------------------------------------| 

VERSE 
e|---------------------------------------------------------------------------| 
B|---------------------------------------------------------------------------| 
G|-------9999------7777------------------------------------------------------| 
D|--9999-9999-7777-7777------------------------------------------------------| 
A|--9999-7777-7777-5555------------------------------------------------------| 
E|--7777------5555-----------------------------------------------------------| 

CHORUS 
e|---------------------------------------------------------------------------| 
B|---------------------------------------------------------------------------| 
G|--------------------7-6----------------------------------------------------| 
D|--6-777-6-777-6-777-7-6----------------------------------------------------| 
A|--6-777-6-777-6-777-5-4----------------------------------------------------| 
E|--4-555-4-555-4-555--------------------------------------------------------| 

-------------------------------------------------------------------------------
Tap to rate this tab
 
# A B C D E F G H I J K L M N O P Q R S T U V W X Y Z