Song name
# A B C D E F G H I J K L M N O P Q R S T U V W X Y Z

Sick Of It All - Petes Sake tab

------------------------------------------------------------------------------- 
                          PETE'S SAKE - Sick Of It All 
------------------------------------------------------------------------------- 

By: Isidre Gas therevel@geocities.com 

Riff 1 
e|--------------------------------------------------------------------| 
B|--------------------------------------------------------------------| 
G|--------------------------------------------------------------------| 
D|--------------------------------------------------------------------| 
A|---3-----6----5----8----3----6----7---------------------------------| 
E|---1-----4----3----6----1----4----5---------------------------------| x4 

Riff 2 
e|--------------------------------------------------------------------| 
B|--------------------------------------------------------------------| 
G|--------------------------------------------------------------------| 
D|---------------------------5---6------------------------------------| 
A|---7---8---5---3---7---8---3---4------------------------------------| 
E|---5---6---3---1---5---6--------------------------------------------| x3 

Riff 1 
e|--------------------------------------------------------------------| 
B|--------------------------------------------------------------------| 
G|--------------------------------------------------------------------| 
D|--------------------------------------------------------------------| 
A|---3-----6----5----8----3----6----7---------------------------------| 
E|---1-----4----3----6----1----4----5---------------------------------| x4 


-------------------------------------------------------------------------------
Tap to rate this tab
# A B C D E F G H I J K L M N O P Q R S T U V W X Y Z