Song name
# A B C D E F G H I J K L M N O P Q R S T U V W X Y Z

Sick Of It All - Stick Together tab

Help us improve GuitareTab! Take a short survey!
------------------------------------------------------------------------------- 
                       STICK TOGETHER - Sick Of It All 
------------------------------------------------------------------------------- 

By: Punk Rock Bob ( Mickey_Mouse_Is_Dead@punkhardcore.net ) 

VERSE 
e|---------------------------------------------------------------------------| 
B|---------------------------------------------------------------------------| 
G|--11-11-11-11--------------------------------------------------------------| 
D|--11-11-11-11-11-----------------------------------------------------------| 
A|--9--9--9--9--11-10-10-10--------------------------------------------------| 
E|--------------9--8--8--8---------------------------------------------------| 

CHORUS (part before stars X2, then part after stars) 
e|------------------------------*--------------------------------------------| 
B|------------------------------*--------------------------------------------| 
G|------------------------------*--------------------------------------------| 
D|------------------------------*--7-7-7-777--7-7-7-777--7-------------------| 
A|--9999-77-11-11--9999-7-7-7-7-*--7-7-7-777--7-7-7-777--7-------------------| 
E|--7777-55-9--9---7777-5-5-5-5-*--5-5-5-555--5-5-5-555--5-------------------| 

-------------------------------------------------------------------------------
Related for Stick Together tab