Song name
# A B C D E F G H I J K L M N O P Q R S T U V W X Y Z

Sick Of It All - Potential For A Fall tab

------------------------------------------------------------------------------- 
                   POTENTIAL FOR A FALL - Sick Of It All 
------------------------------------------------------------------------------- 

Intro 
e|--------------------------------------------|-----| 
B|--------------------------------------------|-----| 
G|--------------------------------------------|-----| 
D|--44-44-44-44-44---5---44-44-44-44-44---3---|--2--| 
A|--44-44-44-44-44---5---44-44-44-44-44---3---|--2--| 
E|--22-22-22-22-22---3---22-22-22-22-22---1---|--0--| 

Verse (Bass) 
e|----------------------------------------------| 
B|----------------------------------------------| 
G|----------------------------------------------| 
D|----------------------------------------------| 
A|----------------------------------------------| 
E|--33--00--33--00--33--00--33--55--33--00--33--| 

Chorus 
e|--------------------------------------------|-----| 
B|--------------------------------------------|-----| 
G|--------------------------------------------|-----| 
D|--55--2222--55--2222--55--2222--5555--4444--|--7--| 
A|--55--2222--55--2222--55--2222--3333--2222--|--5--| 
E|--33--0000--33--0000--33--0000--------------|-----| 

Bridge 
e|------xxxxxx------xxxxxx------xxxxxx-------------| 
B|------xxxxxx------xxxxxx------xxxxxx-------------| 
G|------xxxxxx------xxxxxx------xxxxxx-------------| 
D|--55--xxxxxx--55--xxxxxx--55--xxxxxx--555--7777--| 
A|--55--xxxxxx--55--xxxxxx--55--xxxxxx--555--7777--| 
E|--33--xxxxxx--33--xxxxxx--33--xxxxxx--333--5555--| 

===============================================================================
Tap to rate this tab
# A B C D E F G H I J K L M N O P Q R S T U V W X Y Z