Song name
# A B C D E F G H I J K L M N O P Q R S T U V W X Y Z

Sick Of It All - Us Vs Them tab

------------------------------------------------------------------------------- 
                        US VS. THEM - Sick of it All 
------------------------------------------------------------------------------- 

By:Keith Croxford (Cause-for-alarm@juno.com) 

intro 4 times 
e|--------------------------------------------------------------------| 
B|--------------------------------------------------------------------| 
G|7-7-7-7-7-7-7-7-4-4-4-4-4-4-4-4-5-5-5-5-5-5-5-5-5-5-5-5-5-5-5-5-----| 
D|5-5-5-5-5-5-5-5-2-2-2-2-2-2-2-2-3-3-3-3-3-3-3-3-3-3-3-3-3-3-3-3-----| 
A|--------------------------------------------------------------------| 
E|--------------------------------------------------------------------| 

verse (later on P.m. throughout) 
e|--------------------------------------------------------------------| 
B|--------------------------------------------------------------------| 
G|------4-----------------------4-------------------------------------| 
D|5-----4-x-x-------5-5-5-5-----4-x-x-9-9-9--5-5-5--------------------| 
A|5-x-x-2-x-x-2-2-2-3-3-3-5-x-x-2-x-x-7-7-7--3-3-3--------------------| 
E|3-x-x-------0-0-0-------3-x-x---------------------------------------| 

chorus 
e|--------------------------------------------------------------------| 
B|--------------------------------------------------------------------| 
G|--------------------------------------------------------------------| 
D|2-2-2-2-5-5-5-5-5-5-5-5-4-4-4-4-------------------------------------| 
A|2-2-2-2-3-3-3-3-5-5-5-5-2-2-2-2-------------------------------------| 
E|0-0-0-0---------3-3-3-3---------------------------------------------| 

bridge 
e|--------------------------------------------------------------------| 
B|--------------------------------------------------------------------| 
G|--------------------------------------------------------------------| 
D|------------------------------------------------5-------------------| 
A|5-5-5-5--2-2-2-2-3-3-3-3-3-3-3-3--x-------------5-------------------| 
E|3-3-3-3--0-0-0-0-1-1-1-1-1-1-1-1--x-(pickslide)-3-------------------| 


=============================================================================
Tap to rate this tab
 
# A B C D E F G H I J K L M N O P Q R S T U V W X Y Z