Song name
# A B C D E F G H I J K L M N O P Q R S T U V W X Y Z

Sick Of It All - The Blood And The Sweat tab

------------------------------------------------------------------------------- 
                THE BLOOD AND THE SWEAT - Sick Of It All 
------------------------------------------------------------------------------- 

By: Punk Rock Bob ( Mickey_Mouse_Is_Dead@punkhardcore.net ) 

PART 1 
e|---------------------------------------------------------------------------| 
B|---------------------------------------------------------------------------| 
G|--------------5------5------5----------------------------------------------| 
D|--444-444-444-5--444-5--444-5----------------------------------------------| 
A|--444-444-444-3--444-3--444-3----------------------------------------------| 
E|--222-222-222----222----222------------------------------------------------| 

PART 2 
e|---------------------------------------------------------------------------| 
B|---------------------------------------------------------------------------| 
G|--------------------5-4-55--------------------7-5-4------------------------| 
D|--44-55-44-55-44-55-5-4-55--44-55-44-55-44-55-7-5-4-7----------------------| 
A|--44-55-44-55-44-55-3-2-33--44-55-44-55-44-55-5-3-2-7----------------------| 
E|--22-33-22-33-22-33---------22-33-22-33-22-33-------5----------------------| 

PART 3 
e|---------------------------------------------------------------------------| 
B|---------------------------------------------------------------------------| 
G|--44444444-55555555---------------------44444444-55555555-77777777-7-5-4---| 
D|--44444444-55555555-5555-4444-5555-4444-44444444-55555555-77777777-7-5-4-7-| 
A|--22222222-33333333-5555-4444-5555-4444-22222222-33333333-55555555-5-3-2-7-| 
E|--------------------3333-2222-3333-2222----------------------------------5-| 

SONG STRUCTURE: 
PART 1 
PART 2 
PART 3 
PART 1 
PART 3 
PART 2 
PART 1 

-------------------------------------------------------------------------------
Tap to rate this tab
 
# A B C D E F G H I J K L M N O P Q R S T U V W X Y Z