Song name
# A B C D E F G H I J K L M N O P Q R S T U V W X Y Z

Sick Of It All - Uprising Nation tab

Help us improve GuitareTab! Take a short survey!
Tuning: Drop D

for corrections please contact me at ary_behn@hotmail.com

Intro
e|----------------------------------|
B|----------------------------------|
G|----------------------------------|
D|-00000-00000-000-11111-333-555555-| x 4
A|-00000-00000-000-11111-333-555555-|
D|-00000-00000-000-11111-333-555555-| 

Chorus
e|----------------------------------|
B|----------------------------------|
G|----------------------------------|
D|-00000-00000-000-11111-333-555555-| x 4
A|-00000-00000-000-11111-333-555555-|
D|-00000-00000-000-11111-333-555555-| 

Verse 1
e|-----------------------------------------------------------------|
B|-----------------------------------------------------------------|
G|-----------------------------------------------------------------|
D|-/5--5-5--3-5-6--/5--5-5--3-5-6--/5--5-5--3-5-6--1-1-1-1-0-0-0-0-|
A|-/5--5-5--3-5-6--/5--5-5--3-5-6--/5--5-5--3-5-6--1-1-1-1-0-0-0-0-|
D|-/5--5-5--3-5-6--/5--5-5--3-5-6--/5--5-5--3-5-6--1-1-1-1-0-0-0-0-|

e|-----------------------------------------------------------------|
B|-----------------------------------------------------------------|
G|-----------------------------------------------------------------|
D|-/5--5-5--3-5-6--/5--5-5--3-5-6--/5--5-5--3-5-6--1-1-1-1-1-1-1-1-|
A|-/5--5-5--3-5-6--/5--5-5--3-5-6--/5--5-5--3-5-6--1-1-1-1-1-1-1-1-|
D|-/5--5-5--3-5-6--/5--5-5--3-5-6--/5--5-5--3-5-6--1-1-1-1-1-1-1-1-|

e|------------------|
B|------------------|
G|------------------|
D|-1-1-1-1-1-1-1-1--|
A|-1-1-1-1-1-1-1-1--|
D|-1-1-1-1-1-1-1-1--|

Verse 2
e|----------------------------------------------|
B|----------------------------------------------|
G|----------------------------------------------|
D|-0-00-88--0-00-88--0-00-88--10-10101010101010-| x 5
A|-0-00-66--0-00-66--0-00-66--8--8-8-8-8-8-8-8--| 
D|-0-00-----0-00-----0-00-----------------------|

Verse 3
e|-------------------------------------|
B|-------------------------------------|
G|-------------------------------------|
D|-3-33-3-3-3-33-3-3-4-44-4-4-4-44-4-4-| x 4
A|-3-33-3-3-3-33-3-3-4-44-4-4-4-44-4-4-| 
D|-3-33-3-3-3-33-3-3-4-44-4-4-4-44-4-4-|

Bridge
e|-----------------------------------------|
B|-----------------------------------------|
G|-----------------------------------------|
D|-00000-----00000-----00000-----00000-----| x 2
A|-00000-----00000-----00000-----00000-----|
D|-00000-----00000-----00000-----00000-----|

Chorus

e|----------------------------------|
B|----------------------------------|
G|----------------------------------|
D|-00000-00000-000-11111-333-555555-| x 8
A|-00000-00000-000-11111-333-555555-|
D|-00000-00000-000-11111-333-555555-|

and then the guitar stops while the drums makes one last: dum-bah-dum-bah-dah


Lyrics, I've always found it easier to remember what part to play when you have the words...

Intro
Chorus
Yes! It's right, feel indignation
Stand and be heard - Uprising nation
Seize control, from the undeserving
Let's make our move - Uprising nation

Verse 1
All of the elite, and the biggest money
Use fear to make us, strangers in our country
Media is locked, by the deepest pockets
These immoral plots, have got to be. got to be. got to be
stopped

Verse 2
Foolish thoughts of rapture, in the government
Shouldn't be supported, or even entertained
Foolish thoughts of rapture, can only create
An imminent disaster, that we all have to face

Verse 3
It's disappointing, to see another war
Like we didn't learn, from all our mistakes before
It's disappointing - the gullible mob
This is not a land of revolution anymore

Bridge
Death to tyrants. Death to tyrants. Send them straight to hell

Chorus
Yes! It's right, feel indignation
Stand and be heard - Uprising nation
Seize control, from the undeserving
Let's make our move - Uprising nation

Yes it's right. Yes it's right
All this frustration
Stand and be heard - Uprising nation
Don't be blind. Don't be blind
Don't defend their selfish lies
Rise up. Rise up. Uprising nation
Rise up!

Lovely song, hope you enjoy playing it!
Related for Uprising Nation tab