Song name
# A B C D E F G H I J K L M N O P Q R S T U V W X Y Z

Sick Of It All - Take The Night Off tab

VERSE X3                                              X2
e|-------------------|-------------------------------|---------------------|
b|-------------------|-------------------------------|---------------------|
g|-------------------|-------------------------------|---------------------|
d|-0-03533-6-66-5-55-|-------------------------------|-0-03533-6-66-5-X-X--|
a|-0-03533-6-66-5-55-|-------------------------8-8-8-|-0-03533-6-66-5-X-X--|
D|-0-03533-6-66-5-55-|-777-777-777-777-888-888-8-8-8-|-0-03533-6-66-5-5*5*-|
PM                     ... ... ... ... ... ... 


e|-------------------|---------------------------------|
b|-------------------|---------------------------------|
g|-------------------|---------------------------------|
d|-0-03533-6-66-5-55-|-----------------8-8-8-8-8-8-8-8-|
a|-0-03533-6-66-5-55-|-----------------8-8-8-8-8-8-8-8-|
D|-0-03533-6-66-5-55-|-777-777-777-777-8-8-8-8-8-8-8-8-|
PM                     ... ... ... ... 

 RIT X2                        
e|------------------------------|-----------------------------------|-----------------------------|-------------|
b|------------------------------|-----------------------------------|-----------------------------|-------------|
g|------------------------------|-----------------------------------|-----------------------------|3*3*3*3*3*3*-|
d|-0-00--0-00--1-11111333333333-|-0-0-----0-00-----1-11111333333333-|-0-0-----0-00-----1-111------|3-3-3-3-3-3--|
a|-0-00--0-00--1-11111333333333-|-0-0-000-0-00-000-1-11111333333333-|-0-0-000-0-00-000-1-111-3333-|-------------|
D|-0-00--0-00--1-11111333333333-|-0-0-000-0-00-000-1-11111333333333-|-0-0-000-0-00-000-1-111-3333-|-------------|
PM                                    ...      ...                        ...      ...       ....

 BRIDGE X3
e|-----------------|----------|
b|-----------------|----------|
g|-----------------|----------|
d|-0-0-3-06-66-5-5-|-0-0------|
a|-0-0-3-06-66-5-5-|-0-0-0000-|
D|-0-0-3-06-66-5-5-|-0-0-0000-|
PM                       ....

 VERSE X3                                               X2
e|-------------------|---------------------------------|---------------------|
b|-------------------|---------------------------------|---------------------|
g|-------------------|---------------------------------|---------------------|
d|-0-03533-6-66-5-55-|---------------------------------|-0-03533-6-66-5-X-X--|
a|-0-03533-6-66-5-55-|---------------------------------|-0-03533-6-66-5-X-X--|
D|-0-03533-6-66-5-55-|-777-777-777-777-888-888-888-888-|-0-03533-6-66-5-5*5*-|
PM                     ... ... ... ... ... ... ... ...


e|-------------------|---------------------------------|
b|-------------------|---------------------------------|
g|-------------------|---------------------------------|
d|-0-03533-6-66-5-55-|---------------------------------|
a|-0-03533-6-66-5-55-|---------------------------------|
D|-0-03533-6-66-5-55-|-777-777-777-777-888-888-888-888-|
PM                     ... ... ... ... ... ... ... ...
 
 RIT X2                        
e|------------------------------|-----------------------------------------|----------------------------------|-------------|
b|------------------------------|-----------------------------------------|----------------------------------|-------------|
g|------------------------------|-----------------------------------------|----------------------------------|3*3*3*3*3*3*-|
d|-0-00--0-00--1-11111333333333-|-0-0--------0-00--------1-11111333333333-|-0-0--------0-00--------1-111-3-3-|3-3-3-3-3-3--|
a|-0-00--0-00--1-11111333333333-|-0-0-000000-0-00-000000-1-11111333333333-|-0-0-000000-0-00-000000-1-111-333-|-------------|
D|-0-00--0-00--1-11111333333333-|-0-0-000000-0-00-000000-1-11111333333333-|-0-0-000000-0-00-000000-1-111-333-|-------------|
PM                                    ......      ......                        ......      ......        .

 OUTRO
e|----------------------------------------------------------------------------------------------------------------------------------------------|
b|----------------------------------------------------------------------------------------------------------------------------------------------|
g|----------------------------------------------------------------------------------------------------------------------------------------------|
d|-0--1----1-0-------------------------------------------------------------------------------------------------------------------------------9*-|
a|-0--1-0--1-0----------------------------------------------------------------------------------------------------------------------------------|
D|-0--1-0--1-0---000-0-0-0-0-0-0-0-0-0-0-0-0-0-0-000-0-0-0-0-0-0-0-0-0-0-0-0-0-0-000-0-0-0-0-0-0-000-0-0-0-0-0-0-000-0-0-0-0-0-0-0-0-0-0-0-0----|
PM               ... . . . . . . . . . . . . . . ... . . . . . . . . . . . . . . ... . . . . . . ... . . . . . . ... . . . . . . . . . . . .

  X3                                      1st/2nd|3rd TIME
e|----------------|-------------------------|----|----|
b|----------------|-------------------------|----|----|
g|----------------|-------------------------|----|----|
d|-1-0-0-3-03-6-6-|-------------------------|----|-9*-|
a|-1-0-0-3-03-6-6-|-------------------------|-5\-|----|
D|-1-0-0-3-03-6-6-|-000-0-0-000-0-0-000-0-0-|----|----|
PM                  ... . . ... . . ... . .





LEGEND:
*= Artificial Harmonic
PM= PalmMute

Tabbed by Don D
thunderstruck_666@hotmail.com
Tap to rate this tab
# A B C D E F G H I J K L M N O P Q R S T U V W X Y Z