Song name
# A B C D E F G H I J K L M N O P Q R S T U V W X Y Z

Sick Of It All - Hello Pricks tab

Tabbed by Mesa



Intro
e|--____4x______---|--------------------------------
B|-/            \--|--------------------------------
G|-999-121212-777--|---------777--999-121212--------
D|-999-121212-777--|-222-555-777--999-121212-9-9-9--
A|-777-101010-555--|-222-555-555--777-101010-9-9-9--
E|-----------------|-000-333-----------------7-7-7--

Verse
e|-----------------------|---------------------
B|-----------------------|---------------------
G|--------xxx-7777-------|--------xxx-7--Bass--
D|-2222-5-xxx-7777-7777--|-2222-5-xxx-7--Line--
A|-2222-5-xxx-5555-7777--|-2222-5-xxx-5--------
E|-0000-3-xxx------5555--|-0000-3-xxx----------

e|-----------------------|------------------------- \
B|-----------------------|-------------------------  \
G|--------xxx-7777-------|--------xxx-7---7---7----   \
D|-2222-5-xxx-7777-7777--|-2222-5-xxx-7-5-7-5-7-5--    \
A|-2222-5-xxx-5555-7777--|-2222-5-xxx-5-5-5-5-5-5--     \
E|-0000-3-xxx------5555--|-0000-3-xxx---3---3---3--      \
                                                           2x
e|-----------------------|-------------------------      /
B|-----------------------|-------------------------     /
G|--------xxx-7777-------|-------------------------    /
D|-2222-5-xxx-7777-7777--|--5-4-7-5-10-10-9999999--   /
A|-2222-5-xxx-5555-7777--|--5-4-7-5-10-10-9999999--  /
E|-0000-3-xxx------5555--|--3-2-5-3--8--8-7777777-- /

Refrain
e|--_______2x_______---|--------------------------------
B|-/                \--|--------------------------------
G|-9999-12121212-7777--|---------777--999-121212--------
D|-9999-12121212-7777--|-222-555-777--999-121212-9-9-9--
A|-7779-10101010-5555--|-222-555-555--777-101010-9-9-9--
E|---------------------|-000-333-----------------7-7-7--

Verse 2
e|-----------------------|---------------------
B|-----------------------|---------------------
G|--------xxx-7777-------|--------xxx-7--Bass--
D|-2222-5-xxx-7777-7777--|-2222-5-xxx-7--Line--
A|-2222-5-xxx-5555-7777--|-2222-5-xxx-5--------
E|-0000-3-xxx------5555--|-0000-3-xxx----------

e|-----------------------|------------------------- \
B|-----------------------|-------------------------  \
G|--------xxx-7777-------|--------xxx-7---7---7----   \
D|-2222-5-xxx-7777-7777--|-2222-5-xxx-7-5-7-5-7-5--    \
A|-2222-5-xxx-5555-7777--|-2222-5-xxx-5-5-5-5-5-5--     \
E|-0000-3-xxx------5555--|-0000-3-xxx---3---3---3--      \
                                                           2x
e|-----------------------|-------------------------      /
B|-----------------------|-------------------------     /
G|--------xxx-7777-------|-------------------------    /
D|-2222-5-xxx-7777-7777--|--5-4-7-5-10-10-9999999--   /
A|-2222-5-xxx-5555-7777--|--5-4-7-5-10-10-9999999--  /
E|-0000-3-xxx------5555--|--3-2-5-3--8--8-7777777-- /

Bridge
e|-------------------------------- \
B|--------------------------------  \
G|-9-999---------7-777------------   \
D|-9-999--7-777--7-777--5-555-----    \
A|-7-777--7-777--5-555--5-555-----     \
E|--------5-555---------3-333-----      \
                                          2x
e|--------------------------------      /    |------------
B|--------------------------------     /     |------------
G|-9-999---------7-777------------    /      |------------
D|-9-999--7-777--7-777--9-9-9-9---   / >>>>  |-99999999>>-
A|-7-777--7-777--5-555--9-9-9-9---  /  >>>>  |-99999999>>-
E|--------5-555---------7-7-7-7--- /   >>>>  |-77777777>>-
                                       p.m.    ........

Verse 3
e|------|--------------
B|------|--------------
G|-Bass-|--------------
D|-Line-|-99999999>>>--
A|------|-77777777>>>--
E|------|-00000000>>>--
p.m.      ...........


Refrain
e|--________2x______---|-------------------
B|-/                \--|-------------------
G|-9999-12121212-7777--|-----------7777----
D|-9999-12121212-7777--|-2222-5555-7777----
A|-7777-10101010-5555--|-2222-5555-5555----
E|---------------------|-0000-3333---------

Outro
e|---------------------------------------------------------------
B|---------------------------------------------------------------
G|-9999-12121212-9999-12121212----99----99----99---99999999>>>>--
D|-9999-12121212-9999-12101212-99-99-99-99-99-99-9-99999999>>>>--
A|-7777-10101010-7777-10101010-99-77-99-77-99-77-9-77777777>>>>--
E|-----------------------------77----77----77----7---------------
Tap to rate this tab
# A B C D E F G H I J K L M N O P Q R S T U V W X Y Z