Song name
# A B C D E F G H I J K L M N O P Q R S T U V W X Y Z

Sick Of It All - Burn Em Down tab

SICK OF IT ALL - BURN 'EM DOWN



INTROx1
e|---------------------------------------------------------------------------------|
b|---------------------------------------------------------------------------------|
g|---------------------------------------------------------------------------------|
D|-9/11--11-11--11-11---12\11--11-11--11-11--9/11-1111-9/11-1111--1111111111111111-|
A|-9/11--11-11--11-11---12\11--11-11--11-11--9/11-1111-9/11-1111--1111111111111111-|
E|-7/9---9--9---9--9----10\9---9--9---9--9---7/9--9-9--7/9--9-9---9-9-9-9-9-9-9-9--|

RITx1
e|-------------------------------------------------------------------|
b|-------------------------------------------------------------------|
g|-------------------------------------------------------------------|
D|-9\--2--4-7-777777--9\--2--4-9-999999--9\--2--4-7-777777--9\--2--4-|
A|-7\--2--4-7-777777--7\--2--4-9-999999--7\--2--4-7-777777--7\--2--4-|
E|-----0--2-5-555555------0--2-7-777777------0--2-5-555555------0--2-|

INTROx1
e|---------------------------------------------------------------------------------|
b|---------------------------------------------------------------------------------|
g|---------------------------------------------------------------------------------|
D|-9/11--11-11--11-11---12\11--11-11--11-11--9/11-1111-9/11-1111--1111111111111111-|
A|-9/11--11-11--11-11---12\11--11-11--11-11--9/11-1111-9/11-1111--1111111111111111-|
E|-7/9---9--9---9--9----10\9---9--9---9--9---7/9--9-9--7/9--9-9---9-9-9-9-9-9-9-9--|

VERSEx2                                                                                  ONLY FIRST TIME
e|---------------------------------------------------------------------------------------|----------------------------------|
b|---------------------------------------------------------------------------------------|----------------------------------|
g|-11--1111111111--9-9999999--11-1111111111--7-777-777--11-1111111111--14--141414-141414-|----------------------------------|
D|-11--1111111111--9-9999999--11-1111111111--7-777-777--11-1111111111--14--141414-141414-|-11111111111111111111111111111111-|
A|-9---9-9-9-9-9---7-7777777--9--9-9-9-9-9---5-555-555--9--9-9-9-9-9---12--121212-121212-|-11111111111111111111111111111111-|
E|---------------------------------------------------------------------------------------|-9-9-9-9-9-9-9-9-9-9-9-9-9-9-9-9--|

INTROx1
e|---------------------------------------------------------------------------------|
b|---------------------------------------------------------------------------------|
g|---------------------------------------------------------------------------------|
D|-9/11--11-11--11-11---12\11--11-11--11-11--9/11-1111-9/11-1111--1111111111111111-|
A|-9/11--11-11--11-11---12\11--11-11--11-11--9/11-1111-9/11-1111--1111111111111111-|
E|-7/9---9--9---9--9----10\9---9--9---9--9---7/9--9-9--7/9--9-9---9-9-9-9-9-9-9-9--|


RITx1
e|-------------------------------------------------------------------|
b|-------------------------------------------------------------------|
g|-------------------------------------------------------------------|
D|-9\--2--4-7-777777--9\--2--4-9-999999--9\--2--4-7-777777--9\--2--4-|
A|-7\--2--4-7-777777--7\--2--4-9-999999--7\--2--4-7-777777--7\--2--4-|
E|-----0--2-5-555555------0--2-7-777777------0--2-5-555555------0--2-|

INTROx1
e|---------------------------------------------------------------------------------|
b|---------------------------------------------------------------------------------|
g|---------------------------------------------------------------------------------|
D|-9/11--11-11--11-11---12\11--11-11--11-11--9/11-1111-9/11-1111--1111111111111111-|
A|-9/11--11-11--11-11---12\11--11-11--11-11--9/11-1111-9/11-1111--1111111111111111-|
E|-7/9---9--9---9--9----10\9---9--9---9--9---7/9--9-9--7/9--9-9---9-9-9-9-9-9-9-9--|


VERSEx2                                                                                  ONLY FIRST TIME
e|---------------------------------------------------------------------------------------|----------------------------------|
b|---------------------------------------------------------------------------------------|----------------------------------|
g|-11--1111111111--9-9999999--11-1111111111--7-777-777--11-1111111111--14--141414-141414-|----------------------------------|
D|-11--1111111111--9-9999999--11-1111111111--7-777-777--11-1111111111--14--141414-141414-|-11111111111111111111111111111111-|
A|-9---9-9-9-9-9---7-7777777--9--9-9-9-9-9---5-555-555--9--9-9-9-9-9---12--121212-121212-|-11111111111111111111111111111111-|
E|---------------------------------------------------------------------------------------|-9-9-9-9-9-9-9-9-9-9-9-9-9-9-9-9--|

INTROx1
e|---------------------------------------------------------------------------------|
b|---------------------------------------------------------------------------------|
g|---------------------------------------------------------------------------------|
D|-9/11--11-11--11-11---12\11--11-11--11-11--9/11-1111-9/11-1111--1111111111111111-|
A|-9/11--11-11--11-11---12\11--11-11--11-11--9/11-1111-9/11-1111--1111111111111111-|
E|-7/9---9--9---9--9----10\9---9--9---9--9---7/9--9-9--7/9--9-9---9-9-9-9-9-9-9-9--|


RITx3                                    END
e|--------------------------------------|-----------------------------|
b|--------------------------------------|-----------------------------|
g|--------------------------------------|-----------------------------|
D|-9\--2--4-7-777777--9\--2--4-9-999999-|-9\--2--4-7-777777--9\--2--4-|
A|-7\--2--4-7-777777--7\--2--4-9-999999-|-7\--2--4-7-777777--7\--2--4-|
E|-----0--2-5-555555------0--2-7-777777-|-----0--2-5-555555------0--2-|



INTROx1
e|---------------------------------------------------------------------------------|
b|---------------------------------------------------------------------------------|
g|----------------------------------------------------------------------------9-9\-|
D|-9/11--11-11--11-11---12\11--11-11--11-11--9/11-1111-9/11-1111--1111111111--9-9\-|
A|-9/11--11-11--11-11---12\11--11-11--11-11--9/11-1111-9/11-1111--1111111111--7-7\-|
E|-7/9---9--9---9--9----10\9---9--9---9--9---7/9--9-9--7/9--9-9---9-9-9-9-9--------|

BASS

BRIDGE x 2
e|----------------------------------------------|
b|----------------------------------------------|
g|----------------------------------------------|
D|------------------------------------------77\-|
A|-44444444-77777777-1111111111111111-44444-77\-|
E|-22222222-55555555-9-9-9-9-9-9-9-9--22222-55\-|
PM ........ ........ . . . . . . . .  .....

e|----------------------------------------------|
b|----------------------------------------------|
g|----------------------------------------------|
D|-----4444-----7777---------11111111-----4-77\-|
A|-44444444-77777777-1111111111111111-44444-77\-|
E|-22222222-55555555-9-9-9-9-9-9-9-9--22222-55\-|
PM ....     ....     . . . .          ....

e|--------------------------------------------------------------|
b|--------------------------------------------------------------|
g|--------------------------------------------------------------|
D|-44444444-77777777--11--11-11-11--11-11-11--11-11-11-11-11-11-|
A|-44444444-77777777--11--11-11-11--11-11-11--11-11-11-11-11-11-|
E|-22222222-55555555--9---9--9--9---9--9--9---9--9--9--9--9--9--|


RITx3                                    END
e|--------------------------------------|-----------------------------|
b|--------------------------------------|-----------------------------|
g|--------------------------------------|-----------------------------|
D|-9\--2--4-7-777777--9\--2--4-9-999999-|-9\--2--4-7-777777--9\--2--4-|
A|-7\--2--4-7-777777--7\--2--4-9-999999-|-7\--2--4-7-777777--7\--2--4-|
E|-----0--2-5-555555------0--2-7-777777-|-----0--2-5-555555------0--2-|


INTROx1
e|-----------------------------------------------------------------------------------|
b|-----------------------------------------------------------------------------------|
g|----------------------------------------------------------------------------9-9\---|
D|-9/11--11-11--11-11---12\11--11-11--11-11--9/11-1111-9/11-1111--1111111111--9-9\-2-|
A|-9/11--11-11--11-11---12\11--11-11--11-11--9/11-1111-9/11-1111--1111111111--7-7\-2-|
E|-7/9---9--9---9--9----10\9---9--9---9--9---7/9--9-9--7/9--9-9---9-9-9-9-9--------0-|



PM= Palm Muting
\= Slide down
/= Slide up


Tabbed by DonD 
e-mail: thunderstruck_666@hotmail.com
Tap to rate this tab
 
# A B C D E F G H I J K L M N O P Q R S T U V W X Y Z