Song name
# A B C D E F G H I J K L M N O P Q R S T U V W X Y Z

Sick Of Sarah - Mr Incredible tab

okay, i think it goes something like this... :)
That's about as far as I can get... If you managed to get it whole, or have any comments 
let me know... beep_pu@hotmail.com
enjoy!

\- slide down
/-slide up
h-hammer on
p-pull off


|---------------------------------------------------------------|
|--------------------------16-----------------------------------|
|15-15-15-15-15-18\--15-18----18-15-16-15--10-h11-p10-----------|
|-----------------------------------------------------11-11/13--|
|-------------------------------------------------------------13|
|---------------------------------------------------------------|

|---------------------------------------------------------------|
|---------------------------------------------------------------|
|---15--------13-------11------10--10--10-10-h11-p10------------|
|16---16---15---15--13---13--11--11--11-------------11-11/13----|
|-----------------------------------------------------------13--|
|---------------------------------------------------------------|


you can play riffs D#, B, C#, C# on the verse part
Tap to rate this tab
 
# A B C D E F G H I J K L M N O P Q R S T U V W X Y Z