Song name
# A B C D E F G H I J K L M N O P Q R S T U V W X Y Z

Sick Puppies - My World Acoustic tab

This is my first tab so e mail me and tell me what u think, tdf117@hotmail.com
http://www.youtube.com/watch?v=dXGrbcV3AIY

tuning is full step down
this rythme for the whole verse

d|------------------------|
A|------------------------|
F|-12--X8--10--X4--9------|X4
C|--10------10------10----|
G|------------------------|
D|------------------------|

Chorus
Shimon Moore slides his pinky up and down for the first part

d|-3--3--0--3-|
A|-6--5--1--3-|
F|-5--5--2--0-|
C|-3--3--2--0-|
G|-3--3--0--2-|
D|-3--3--0--3-|

That is used for the chorus, watch the vid to figure out rythme
then switch back and forth from verse to chorus
Tap to rate this tab
# A B C D E F G H I J K L M N O P Q R S T U V W X Y Z