Guitaretab - guitar tabs
Song name
# A B C D E F G H I J K L M N O P Q R S T U V W X Y Z

Sick Puppies - Everyday tab

Tuning: Drop D and then down another half step (Low to High: Db, Ab, Db, Gb, Bb, Eb)

Intro X2 end on 7th 
Eb --------------------------------------------------------------------------------------------------------------
Bb --------------------------------------------------------------------------------------------------------------
Gb --------------------------------------------------------------------------------------------------------------
Db ---777-7h8-7h8-7h8-5-777-7h8-7h8-///////12-11-----------------------------------------------------------------
Ab --------------------------------------------------------------------------------------------------------------
Db --------------------------------------------------------------------------------------------------------------

Main song (Heavy distortion)
Eb --------------------------------------------------------------------------------------------------------------
Bb --------------------------------------------------------------------------------------------------------------
Gb --------------------------------------------------------------------------------------------------------------
Db ----777-7h8-7h8-7h8-5---777-7h8-7h8-///////12-11-------------------------------0-3-2--------------------------
Ab ----777-78h-7h8-7h8-5---777-7h8-7h8-///////12-11---repeat and finish with -0-3-2------------------------------
Db ----777-7h8-7h8-7h8-5---777-7h8-7h8-///////12-11-------------------------------0-3-2--------------------------

Verse
Eb --------------------------------------------------------------------------------------------------------------
Bb --------------------------------------------------------------------------------------------------------------
Gb --------------------------------------------------------------------------------------------------------------
Db ----77-77-8-77-77-5-6-----77-77-8-77-77-0-3-2-----------------------------------------------------------------
Ab ----77-77-8-77-77-5-6-----77-77-8-77-77-0-3-2-----------------------------------------------------------------
Db ----77-77-8-77-77-5-6-----77-77-8-77-77-0-3-2-----------------------------------------------------------------

Chorus
Eb --------------------------------------------------------------------------------------------------------------
Bb --------------------------------------------------------------------------------------------------------------
Gb ---------------------x-5-x-7----------------------------------------------------------------------------------
Db ---777-55-x-0----x-5-x-7----------777-55-x-0~~~~~~~-----------------------------------------------------------
Ab ---777-55-x-0----x-3-x-5----------777-55-x-0~~~~~~~-----------------------------------------------------------
Db ---777-55-x-0-----------------------777-55-x-0~~~~~~~---------------------------------------------------------
[ Tab from: http://www.guitaretab.com/s/sick-puppies/120960.html ]
Bridge
Eb --------------------------------------------------------------------------------------------------------------
Bb --------------------------------------------------------------------------------------------------------------
Gb ----77--------------77----------------7~~~~~~~~~-----//////////19---------------------------------------------
Db ----77--------------77----------------7~~~~~~~~~-----//////////19---------------------------------------------
Ab ----55--------------55----------------5~~~~~~~~~-----//////////17---------------------------------------------
Db --------------------------------------------------------------------------------------------------------------

Eb --------------------------------------------------------------------------------------------------------------
Bb --------------------------------------------------------------------------------------------------------------
Gb --------------------------------------------------------------------------------------------------------------
Db -------5h6 5h6 5h6--------------------------------------------------------------------------------------------
Ab --------------------------3h5-----Repeat adding a D5 every now and then (listen to the CD)--------------------
Db -000----------------------------------------------------------------------------------------------------------
       PM~~~~~~~~~~~~~~~~~~~~~~~~~~~~~~~~~~~~~~~~~~~~~~~~~~~~~~~~~~~~~~~~~~

Heavier part of Bridge

Eb --------------------------------------------------------------------------------------------------------------
Bb --------------------------------------------------------------------------------------------------------------
Gb --------------------------------------------------------------------------------------------------------------
Db ---000---5h6-5h6-5h6-5h6--------------------------------------------3-x-3-x-3---------------------------------
Ab ---000---5h6-5h6-5h6-5h6---3h5----repeat X3 on the third hit-3-x-3-x-3---------------------------------------
Db ---0005h6 5h6 5h6 5h6---------------------------------------------3-x-3-x-3----------------------------------

Eb --------------------------------------------------------------------------------------------------------------
Bb --------------------------------------------------------------------------------------------------------------
Gb --------------------------------------------------------------------------------------------------------------
Db -------------12-11-10-9-8-7-6-5-4-3-2-0-----------------------------------------------------------------------
Ab -end with -12-11-10-9-8-7-6-5-4-3-2-0-------------------------------------------------------------------------
Db -------------12-11-10-9-8-7-6-5-4-3-2-0-----------------------------------------------------------------------

This is all correct and I would like to say that the Sick Puppies  are one of the best Australian Bands.
E-mail at rokaxe2001@hotmail.com if u have a questions.
Related for Everyday tab