Song name
# A B C D E F G H I J K L M N O P Q R S T U V W X Y Z

Sick Puppies - Riptide tab

SICK PUPPIES - RIPTIDE


IN C TUNING WHICH IS CGCFAD

TIMING AND NUMBER OF STROKES ARE ON YOU, I PUT THE TABS IN THE CORRECT ORDER AS THEY 
THROUGH THE SONG

PLEASE RATE AND COMMENT MY TAB THANKS A BUNCH


INTRO - BASS ONLY


VERSE

----------------------------------------------|
----------------------------------------------|
--------------------------------7---7---------|
--------------------------------7---7---5---5-|
-----------------------7-9-7-9--5---5---5---5-|
-9-9---9-9---7-7---7-7------------------5---5-|


CHORUS

-----------------------------------|
-----------------------------------|
-0---9---7---------------0---9---7-|
-0---7---5---5---9---7---0---7---5-|
-0---7---5---5---9---7---0---7---5-|
-0---7---5---5---9---7---0---7---5-|
             *pm          un mute


VERSE 2

----------------------------------------------|
----------------------------------------------|
--------------------------------7---7---------|
--------------------------------7---7---5---5-|
-----------------------7-9-7-9--5---5---5---5-|
-9-9---9-9---7-7---7-7------------------5---5-|


CHORUS 2

-----------------------------------|
-----------------------------------|
-0---9---7---------------0---9---7-|
-0---7---5---5---9---7---0---7---5-|
-0---7---5---5---9---7---0---7---5-|
-0---7---5---5---9---7---0---7---5-|
             *pm          un mute


BRIDGE - bass only for 2 bars then come in with this

--------------------------------|
--------------------------------|
------7---5---4-----------------|
-0----7---5---4---3---5---3---0-|
-0----5---3---2---3---5---3---0-|
-0----------------3---5---3---0-|


THEN OUTRO IS

FINAL CHORUS

CHORUS

-----------------------------------|
-----------------------------------|
-0---9---7---------------0---9---7-|
-0---7---5---5---9---7---0---7---5-|
-0---7---5---5---9---7---0---7---5-|
-0---7---5---5---9---7---0---7---5-|
             *pm          un mute


FINAL BRIDGE

--------------------------------|
--------------------------------|
------7---5---4-----------------|
-0----7---5---4---3---5---3---0-|
-0----5---3---2---3---5---3---0-|
-0----------------3---5---3---0-|


AND THATS IT
Tap to rate this tab
# A B C D E F G H I J K L M N O P Q R S T U V W X Y Z