Guitaretab - guitar tabs
Song name
# A B C D E F G H I J K L M N O P Q R S T U V W X Y Z

Sick Puppies - Street Fghter War tab

Please rate and comment.
Key
|---------------|
|Palm mute: .   |
|Hammer-on: h   |
|Pull-off: p    |
|Slide up: /    |
|Slide down: \  |
|---------------|

CGCFAD
Wait for drum beat.
Verse 1
----------------------------------------------------------------------------|
----------------------------------------------------------------------------|
----------------------------------------------------------------------------|
-0--000--000--000--000--000--000--000--000--000--000--000-------------------|
-0--000--000--000--000--000--000--000--000--000--000--000-------------------|
-0--000--000--000--000--000--000--000--000--000--000--000-------------------|

Verse 2
----------------------------------------------------------------------------|
----------------------------------------------------------------------------|
--------------------------5-------------------------------------------------|
-0--000--000--000--003--335-------------------------------------------------|
-0--000--000--000--003--333-------------------------------------------------|
-0--000--000--000--003--33---10\--------------------------------------------|

Pre-Chorus
-----------------------------------------------------------------------------|
-----------------------------------------------------------------------------|
-----------------------------------------------------------------------------|
-333--111--0-0000000--/888--777--5-5555555--333--111--00000000---------------|
-333--111--0-0000000--/888--777--5-5555555--333--111--00000000---------------|
-333--111--0-0000000--/888--777--5-5555555--333--111--00000000---------------|
                                                      ........
Chorus 1
Repeat the part in parentheses after playin the 0's through the 1x1
-----------------------------------------------------------------------------|
-----------------------------------------------------------------------------|
-----------------------------------------------------------------------------|
-|00000000--33333333--88888888--55555|-1x1-----------------------------------|
-|00000000--33333333--88888888--55555|-1x1-----------------------------------|
-|00000000--33333333--88888888--55555|-1x1-----------------------------------|
  ---------------------------------------------------------------------------|
Verse 3
----------------------------------------------------------------------------|
----------------------------------------------------------------------------|
----------------------------------------------------------------------------|
-0--110--110--110--110--110--113--335--110--110--113--335-------------------|
-0--110--110--110--110--110--113--335--110--110--113--335-------------------|
-0--110--110--110--110--110--113--335--110--110--113--335--10\--------------|
[ Tab from: http://www.guitaretab.com/s/sick-puppies/195510.html ]
Pre-Chorus 2
----------------------------------------------------------------------------|
----------------------------------------------------------------------------|
----------------------------------------------------------------------------|
-333--111--0-0000000--/888--777--5-5555555--333--111--00000000--------------|
-333--111--0-0000000--/888--777--5-5555555--333--111--00000000--------------|
-333--111--0-0000000--/888--777--5-5555555--333--111--00000000--------------|
                                                      ........
Chorus 2
Repeat the part in parentheses after playing through the 0's and 1x1
-----------------------------------------------------------------------------|
-----------------------------------------------------------------------------|
-----------------------------------------------------------------------------|
-|00000000--33333333--88888888--55555|-1x1-----------------------------------|
-|00000000--33333333--88888888--55555|-1x1-----------------------------------|
-|00000000--33333333--88888888--55555|-1x1-----------------------------------|
  ---------------------------------------------------------------------------|
Bridge: the h's, p's, and slides sound faint in the song, but they're there.
----------------------------------------------------------------------------|
----------------------------------------------------------------------------|
----------------------------------------------------------------------------|
-0-0h1p0--0-0h1p0--0-3/5\3--0-3/5\3--0--------0--------0-8\--0-8\-----------|
-0--------0--------0--------0--------0-4/5\4--0-4/5\4--0-8\--0-8\-----------|
-0--------0--------0--------0--------0--------0--------0-8\--0-8\-----------|

----------------------------------------------------------------------------|
----------------------------------------------------------------------------|
----------------------------------------------------------------------------|
-0--0--3--3--8--8--1--1-----------------------------------------------------|
-0--0--3--3--8--8--1--1-------x2--------------------------------------------|
-0--0--3--3--8--8--1--1-----------------------------------------------------|

Solo
----------------------------------------------------------------------------|
-33333333333333333333333333333----------------------------------------------|
----------------------------------------------------------------------------|
--------------------------------1x1-----------------------------------------|
--------------------------------1x1-----------------------------------------|
--------------------------------1x1-----------------------------------------|

Chorus 3
----------------------------------------------------------------------------|
----------------------------------------------------------------------------|
----------------------------------------------------------------------------|
-00000000--33333333--11-11-11-11-11-11-11-11--555-555-555-------------------|
-00000000--33333333--11-11-11-11-11-11-11-11--555-555-555-------------------|
-00000000--33333333--11-11-11-11-11-11-11-11--555-555-555-------------------|

----------------------------------------------------------------------------|
----------------------------------------------------------------------------|
----------------------------------------------------------------------------|
-00000000--33333333--88888888--55555-1x1------------------------------------|
-00000000--33333333--88888888--55555-1x1------------------------------------|
-00000000--33333333--88888888--55555-1x1------------------------------------|

----------------------------------------------------------------------------|
----------------------------------------------------------------------------|
----------------------------------------------------------------------------|
-00000000--33333333--88888888--55x55x5--------------------------------------|
-00000000--33333333--88888888--55x55x5--------------------------------------|
-00000000--33333333--88888888--55x55x5--------------------------------------|

Outro
----------------------------------------------------------------------------|
----------------------------------------------------------------------------|
----------------------------------------------------------------------------|
-0-----110-----110-----110-----1111110-----110-----110-----110-----110------|
-0/5\--110/5\--110/5\--110/5\--1111110/5\--110/5\--110/5\--110/5\--110/5\---|
-0-----110-----110-----110-----1111110-----110-----110-----110-----110------|

----------------------------------------------------------------------------|
----------------------------------------------------------------------------|
----------------------------------------------------------------------------|
-110------------------------------------------------------------------------|
-110------------------------------------------------------------------------|
-110------------------------------------------------------------------------|

And that's it. Enjoy!
Related for Street Fghter War tab
Street Fghter War chords by Sick Puppies