Song name
# A B C D E F G H I J K L M N O P Q R S T U V W X Y Z

Sick Puppies - Survive tab

Song: Survive
Artist: Sick Puppies
Tabbed by: aLEC dICKSON
Tuning: Drop C; CGCFAD
Make sure you listen to the song to know the timing.
|-------------------|
|/ slide up         |
|\ slide down       |
|. palm mute        |
|b bend             |
|r return from bend |
|-------------------|

Intro
Guitar 1                                                                   x2
|---------------------------------------------------------------------------||--|
|--6-6-6-6-6-6/9\6--6-6-6-6-6-6/9\6--6-6-6-6-6-6/9\6--6-6-6-6-6-6/9\6-----------|
|-------------------------------------------------------------------------------|
|-------------------------------------------------------------------------------|
|-------------------------------------------------------------------------------|

Guitar 2
|---------------------------------------------------------------------------|
|---------------------------------------------------------------------------|
|--6-6-6-6-6-6/9\6--6-6-6-6-6-6/9\6--6-6-6-6-6-6/9\6--6-6-6-6-5-5-5-5-------|
|---------------------------------------------------------------------------|
|---------------------------------------------------------------------------|
|---------------------------------------------------------------------------|

Verse 1
Guitar 1
|---------------------------------------------------------------------------|
|---------------------------------------------------------------------------|
|--6-6-6-6-6-6/9\6--6-6-6-6-6-6/9\6--6-6-6-6-6-6/9\6--6-6-6-6-6-6/9\6-------|
|---------------------------------------------------------------------------|
|---------------------------------------------------------------------------|
|---------------------------------------------------------------------------|

Guitar 2
|---------------------------------------------------------------------------|
|---------------------------------------------------------------------------|
|--6-6-6-6-6-6/9\6--6-6-6-6-6-6/9\6--6-6-6-6-6-6/9\6--6-6-6-6-5-5-5-5-------|
|---------------------------------------------------------------------------|
|---------------------------------------------------------------------------|
|---------------------------------------------------------------------------|

Guitar 1
|---------------------------------------------------------------------------|
|---------------------------------------------------------------------------|
|--6-6-6-6-6-6/9\6--6-6-6-6-6-6/9\6--6-6-6-6-6-6/9\6------------------------|
|-------------------------------------------------------5----4--------------|
|-------------------------------------------------------5----4--------------|
|-------------------------------------------------------5----4--------------|

Guitar 2
|---------------------------------------------------------------------------|
|---------------------------------------------------------------------------|
|--6-6-6-6-6-6/9\6--6-6-6-6-6-6/9\6--6-6-6-6-6-6/\9-6-----------------------|
|-------------------------------------------------------5----4--------------|
|-------------------------------------------------------5----4--------------|
|-------------------------------------------------------5----4--------------|

Pre-Chorus
Guitar 1
|---------------------------------------------------------------------------|
|---------------------------------------------------------------------------|
|---9---9---9---9---8---8---8---8--11--11--11--11---9---9---9---9-----------|
|-11--11--11--11--11--11--11--11--11--11--11--11--11--11--11--11------------|
|---------------------------------------------------------------------------|
|---------------------------------------------------------------------------|

Chorus 1
Guitar 1&2  (Strum however it sounds right)
|---------------------------------------------------------------------------||--|
|--------------------4--------6--------------------------4--------6\--6\--------|
|--7--------2--------4--------6--------7--------2--------4--------6\--6\--------|
|--7--------2--------2--------4--------7--------2--------2--------4\--4\--------|
|--7--------2--------------------------7--------2-------------------------------|

|---------------------------------------------------------------------------|
|---------------------------------------------------------------------------|
|---------------------------------------------------------------------------|
|-----------------6-6-6-6-9-9-9-9---------6-6-6-6-9-9-9-9-11-11-11-11-------|
|-7-7-7-7-9-9-9-9-----------------9-9-9-9-----------------------------------|
|---------------------------------------------------------------------------|

|---------------------------------------------------------------------------|
|---------------------------------------------------------------------------|
|--------------------4------5-----------------------------------------------|
|--7--------2--------4------5-----------------------------------------------|
|--7--------2--------2------3-----------------------------------------------|
|--7--------2---------------------------------------------------------------|

Verse 2
Guitar 1
|---------------------------------------------------------------------------|
|---------------------------------------------------------------------------|
|--6-6-6-6-6-6/9\6--6-6-6-6-6-6/9\6--6-6-6-6-6-6/9\6--6-6-6-6-6-6/9\6-------|
|---------------------------------------------------------------------------|
|---------------------------------------------------------------------------|
|---------------------------------------------------------------------------|

Guitar 2
|---------------------------------------------------------------------------|
|---------------------------------------------------------------------------|
|--6-6-6-6-6-6/9\6--6-6-6-6-6-6/9\6--6-6-6-6-6-6/9\6--6-6-6-6-5-5-5-5-------|
|---------------------------------------------------------------------------|
|---------------------------------------------------------------------------|
|---------------------------------------------------------------------------|

Guitar 1
|---------------------------------------------------------------------------|
|---------------------------------------------------------------------------|
|--5-6-5-6-5-6-9-6--5-6-5-6-5-6-9-6--5-6-5-6-5-6-9-6--5-6-5-6-5-6-9-6-------|
|---------------------------------------------------------------------------|
|---------------------------------------------------------------------------|
|---------------------------------------------------------------------------|
   . . . . . .      . . . . . .      . . . . . .      . . . . . .
|---------------------------------------------------------------------------|
|---------------------------------------------------------------------------|
|--5-6-5-6-5-6-9-6--5-6-5-6-5-6-9-6-----------------------------------------|
|---------------------------------------------------------------------------|
|---------------------------------------------------------------------------|
|---------------------------------------------------------------------------|
   . . . . . .      . . . . . .
Guitar 1&2
|---------------------------------------------------------------------------|
|---------------------------------------------------------------------------|
|--6-6--6-6-6--6---------------8-8--8-8-8--8--------------------------------|
|--6-6--6-6-6--6-2-2--2-2-2--2-8-8--8-8-8--8-5-5--5-4-4---------------------|
|--4-4--4-4-4--4-2-2--2-2-2--2-6-6--6-6-6--6-5-5--5-4-4---------------------|
|----------------2-2--2-2-2--2---------------5-5--5-4-4---------------------|

|---------------------------------------------------------------------------|
|---------------------------------------------------------------------------|
|--6-6--6-6-6--6---------------8-8--8-8-8--8--------------------------------|
|--6-6--6-6-6--6-2-2--2-2-2--2-8-8--8-8-8--8-5-5---4-4----------------------|
|--4-4--4-4-4--4-2-2--2-2-2--2-6-6--6-6-6--6-5-5---4-4----------------------|
|----------------2-2--2-2-2--2---------------5-5---4-4----------------------|

Pre-Chorus
Guitar 1
|---------------------------------------------------------------------------|
|---------------------------------------------------------------------------|
|---9---9---9---9---8---8---8---8--11--11--11--11---9---9---9---9-----------|
|-11--11--11--11--11--11--11--11--11--11--11--11--11--11--11--11------------|
|---------------------------------------------------------------------------|
|---------------------------------------------------------------------------|

Chorus 2
Guitar 1&2  (Strum however it sounds right)
|---------------------------------------------------------------------------|
|---------------------------------------------------------------------------|
|--------------------4--------6---------------------------4--------6\--6\---|
|--7--------2--------4--------6--------7---------2--------4--------6\--6\---|
|--7--------2--------2--------4--------7---------2--------2--------4\--4\---|
|--7--------2--------------------------7---------2--------------------------|

|---------------------------------------------------------------------------|
|---------------------------------------------------------------------------|
|---------------------------------------------------------------------------|
|-----------------6-6-6-6-9-9-9-9----------6-6-6-6-9-9-9-9-11-11-11-11------|
|-7-7-7-7-9-9-9-9------------------9-9-9-9----------------------------------|
|---------------------------------------------------------------------------|

|---------------------------------------------------------------------------|
|---------------------------------------------------------------------------|
|--------------------4--------5---------------------------------------------|
|--7--------2--------4--------5---------------------------------------------|
|--7--------2--------2--------3---------------------------------------------|
|--7--------2---------------------------------------------------------------|

Bridge
Guitar 1
|---------------------------------------------------------------------------|
|---------------------------------------------------------------------------|
|---9---9---9---9---8---8---8---8---9---9---9---9---8---8---8---8-----------|
|-11--11--11--11--11--11--11--11--11--11--11--11--11--11--11--11------------|
|---------------------------------------------------------------------------|
|---------------------------------------------------------------------------|
                                                                          x2
|---------------------------------------------------------------------------|
|---------------------------------------------------------------------------|
|---9---9---9---9---8---8---8---8---13--13--13--13--12--12--12--12----------|
|-11--11--11--11--11--11--11--11--11--11--11--11--11--11--11--11------------|
|---------------------------------------------------------------------------|
|---------------------------------------------------------------------------|

Solo
Guitar 1 Do the part in parentheses the second time.                       x2
|---------------------------------------------------7b8r7------6b7r6--------|
|-------9b10r9------8b9r8---------------------------------------------------|
|--6--6--------6--6------------5b6r5-----4b5r4-8--8-------8--8--------------|
|--4--4--------4--4-------2--2------2--2-------8--8-------8--8--------------|
|--4--4--------4--4-------2--2------2--2-------6--6-------6--6--------------|
|-------------------------2--2------2--2------------------------------------|

|---------------------------------------------------------------------------|
|---------------------------------------------------------------------------|
|---------------------------------------------------------------------------|
|--5--5-7~~~~-4--4-6~~~~---(5-5-5-5-4-4-4-4)--------------------------------|
|--5--5-------4--4---------(5-5-5-5-4-4-4-4)--------------------------------|
|--5--5-------4--4---------(5-5-5-5-4-4-4-4)--------------------------------|

Guitar 2
|---------------------------------------------------------------------------|
|---------------------------------------------------------------------------|
|--6--6--------6--6----------------------------8--8-------8--8--------------|
|--4--4--------4--4-------2--2------2--2-------8--8-------8--8--------------|
|--4--4--------4--4-------2--2------2--2-------6--6-------6--6--------------|
|-------------------------2--2------2--2------------------------------------|

|---------------------------------------------------------------------------|
|---------------------------------------------------------------------------|
|---------------------------------------------------------------------------|
|--5--5-------4--4--------(5-5-5-5-4-4-4-4)---------------------------------|
|--5--5-------4--4--------(5-5-5-5-4-4-4-4)---------------------------------|
|--5--5-------4--4--------(5-5-5-5-4-4-4-4)---------------------------------|

Break
Guitar 1
|---------------------------------------------------------------------------|
|---------------------------------------------------------------------------|
|---------------------------------------------------------------------------|
|---x----------x---------0-1-------------x-x-x-xxxx-------------------------|
|---x----------x---------0-1-------------x-x-x-xxxx-------------------------|
|---x----------x---------0-1-------------x-x-x-xxxx-------------------------|

Chorus 3
Guitar 1&2 (strum however it sounds right)
|---------------------------------------------------------------------------||--|
|--------------------4--------6--------------------------4--------6\--6\--------|
|--7--------2--------4--------6--------7--------2--------4--------6\--6\--------|
|--7--------2--------2--------4--------7--------2--------2--------4\--4\--------|
|--7--------2--------------------------7--------2-------------------------------|

|---------------------------------------------------------------------------|
|---------------------------------------------------------------------------|
|---------------------------------------------------------------------------|
|-----------------6-6-6-6-9-9-9-9---------6-6-6-6-9-9-9-9-11-11-11-11-------|
|-7-7-7-7-9-9-9-9-----------------9-9-9-9-----------------------------------|
|---------------------------------------------------------------------------|

|---------------------------------------------------------------------------|
|---------------------------------------------------------------------------|
|--------------------4-4-4-4-4-4-4-4-6-6-6-6-6-6-6-6------------------------|
|--7--------2--------4-4-4-4-4-4-4-4-6-6-6-6-6-6-6-6------------------------|
|--7--------2--------2-2-2-2-2-2-2-2-4-4-4-4-4-4-4-4------------------------|
|--7--------2---------------------------------------------------------------|
                     . . . . . . . .
Outro 1
Guitar 1                                                                   x2
|---------------------------------------------------------------------------|
|---------------------------------------------------------------------------|
|--6-6-6-6-6-6/9\6--6-6-6-6-6-6/9\6--6-6-6-6-6-6/9\6--6-6-6-6-6-6/9\6-------|
|---------------------------------------------------------------------------|
|---------------------------------------------------------------------------|
|---------------------------------------------------------------------------|

Guitar 2 Leave out the part in parentheses the second time.                x2
|---------------------------------------------------------------------------|
|---------------------------------------------------------------------------|
|--6-6--6-6-6--6---------------8-8--8-8-8--8--------------------------------|
|--6-6--6-6-6--6-2-2--2-2-2--2-8-8--8-8-8--8-(5-5--5-4-4)-------------------|
|--4-4--4-4-4--4-2-2--2-2-2--2-6-6--6-6-6--6-(5-5--5-4-4)-------------------|
|----------------2-2--2-2-2--2---------------(5-5--5-4-4)-------------------|

Outro 2
Guitar 1                                                                  x2
|---------------------------------------6-------6---------------------------|
|-------9-------9-----------------------------------------------------------|
|--6--6----6--6---------4-------4--8--8----8--8-----------------------------|
|--6--6----4--6----2--2----2--2----8--8----8--8----5--5-5--4--4-4-----------|
|--4--4----4--4----2--2----2--2----6--6----6--6----5--5----4--4-------------|
|------------------2--2----2--2--------------------5--5----4--4-------------|

Guitar 2                                                                  x2
|---------------------------------------------------------------------------|
|---------------------------------------------------------------------------|
|--6--6----6--6--------------------8--8----8--8-----------------------------|
|--6--6----6--6----2--2----2--2----8--8----8--8----5--5----4--4-------------|
|--4--4----4--4----2--2----2--2----6--6----6--6----5--5----4--4-------------|
|------------------2--2----2--2--------------------5--5----4--4-------------|

That's it! Enjoy.
The Solo takes some time, so work on it slowly.
Tap to rate this tab
 
# A B C D E F G H I J K L M N O P Q R S T U V W X Y Z