Song name
# A B C D E F G H I J K L M N O P Q R S T U V W X Y Z

Sick Puppies - Odd One tab

----------------------------------------------------------------------
			     Odd One - Sick Puppies
----------------------------------------------------------------------Tabbed by:the_extreme
Album: Tri-Polar
Tuning:Drop C

Have fun! :)

INTRO: Clean Setting
D|------xxx--------------xxx---------------xxx-----xxx-----xxx--------|
A|------xxx--------------xxx---------------xxx-----xxx-----xxx--------|
F|------xxx--------------xxx---------------xxx-----xxx-----xxx--------|
C|--4-4-xxx-4-4-4h7--4-4-xxx--4-4-4h7--6-6-xxx-6-6-xxx-6-6-xxx-6--6--6|(2x)
G|--5-5-xxx-5-5-5----5-5-xxx--5-5-5----7-7-xxx-7-7-xxx-7-7-xxx-7--7--7|
C|------xxx--------------xxx---------------xxx-----xxx-----xxx--------|


Guitar 2 (Play this under what is played above)

           "Odd One you're never alone,
D|------0~~--------------------------------4~~--|
A|----3~~--------------------------------3~~----|
F|--2~~--------------------------------2~~------|
C|----------------------------------------------|
G|----------------------------------------------|
C|----------------------------------------------|
(some small picking parts I couldn't tab out, 
if anyone figures it out, just comment and I'll fix it)

Pre-Chorus: Distortion

...cept, what I'm FEEling!
D|--------------------------------------------------------------------------|
A|--------------------------------------------------------------------------|
F|-7777777777777777---------------7--------------7--6-6-666-6-6-666-6-6-666-|
C|-7777777777777777---0-0-000-0-0-7--0-0-000-0-0-7--5-5-555-5-5-555-5-5-555-|
G|-5555555555555555---0-0-000-0-0-5--0-0-000-0-0-5--4-4-444-4-4-444-4-4-444-|
C|--------------------0-0-000-0-0----0-0-000-0-0----------------------------|
   ********               ***            ***            ***     ***     ***
D|----------|
A|----------|
F|-6--6--6--|
C|-5--5--5--| (Play this entire thing 2x)
G|-4--4--4--|
C|----------|

Second Part of Pre-Chorus
"Odd Oneeeeeee"
D|--------------------------------------|
A|--------------------------------------|
F|--------------------------------------|
C|---5555555555555555---(then Chorus)---|
G|---5555555555555555-------------------|
C|---5555555555555555-------------------|
     ********

CHORUS

  "HEYYYYYYYY, It's Gonna be Okay"
D|------------------------------------------------------------------------|
A|------------------------------------------------------------------------|
F|------------------------------------------------------------------------|
C|-0-0-000-0-0--14\-7-7-777-7-7-14\-5-5-555-5-5-555-5-5-555--5--5---5-----|
G|-0-0-000-0-0--12\-7-7-777-7-7-12\-5-5-555-5-5-555-5-5-555--5--5---5-----|
C|-0-0-000-0-0------7-7-777-7-7-----5-5-555-5-5-555-5-5-555--5--5---5-----|
       ***              ***             ***     ***     ***          (2x)

Verse 2 (Basically, the only difference is this small fill in the Pre-Chorus)

"Who will accept us!"
D|---------------------|
A|---------------------|
F|--7--6--7--9--11-6---|
C|--x--x--x--x--x--x---|(2x)
G|--5--4--5--7--9--4---|
C|---------------------|

Chorus 2


Bridge

D|--------------------------------------------------------------------------|
A|--------------------------------------------------------------------------|
F|--------------------------------------------------------------------------|
C|--------------------------------------------------------------------------|
G|--------------------------------------------------------------------------|
C|--4-2-0-4-2-0-4-2-0-4-5-4-4-2-0-4-2-0-4-2-0-4-5-4-4-2-0-4-2-0-4-2-0-4-5-4-|
(Play the above again, but palm muted)
D|----------------------|
A|----------------------|
F|--6666666666666666----|
C|--6666666666666666----|
G|--4444444444444444----|
C|----------------------|
    ****


End Part of Bridge (Not totally positive about this part)

  "Hey..."      "It's gonna be Okay"
D|----2~------0~-----2~-----------------|
A|---3~------3~-----3~---------3--------|
F|--2~------2~-----2~-------------------|
C|---------------------------0---0------|
G|--------------------------------------|
C|--------------------------------------|


"gonna laugh at this one day...
D|------------------------------------------------------|
A|------------------------------------------------------|
F|------------------------------------------------------|
C|----------------------------5555555555555555----------|
G|----------------------------5555555555555555----------|
C|----------------------------5555555555555555----------|
                              ********
Outro

"Don't Let, Someone, Tell You You're No One"
D|------------------------------------------|
A|------------------------------------------|
F|------------------------------------------|
C|--------7-5-4-------7-5-4-------7-5-4-----|
G|------------------------------------------|
C|--000000-0-0--777777-7-7--555555-5-5------|

 "Odd oneeeeeeeeeeeeee"
D|-------------------------------------------------------------------------|
A|-------------------------------------------------------------------------|
F|-------------------------------------------------------------------------|
C|-------------------------------------------------------------------------|
G|-------------------------------------------------------------------------|
C|-4-2-0-4-2-0-4-2-0-4-5-4-4-2-0-4-2-0-4-2-0-4-5-4-4-2-0-4-2-0-4-2-0-4-5-4-|

D|--------------------------------------|
A|--------------------------------------|
F|--7-6-7--9--11-6----------------------|
C|--x-x-x--x--x--x----0~~~~~------------|
G|--5-4-5--7--9--4----0~~~~~------------|
C|--------------------0~~~~~------------|

Tab Legend:
~ = Let note ring, or hold note
* = Palm Mute
\ = Slide
h = Hammer On
Tap to rate this tab
# A B C D E F G H I J K L M N O P Q R S T U V W X Y Z