Song name
# A B C D E F G H I J K L M N O P Q R S T U V W X Y Z

Sick Puppies - Street Fighter War tab

Tuning- Drop C

Intro (0.00-.0.30)

d|-------------------------------------------------------------------------|
A|-------------------------------------------------------------------------|
F|-------------------------------------------------------------------------|
C|-------------------------------------------------------------------------|
G|-------------------------------------------------------------------------|
C|-0----0--0--0--0---------------------------------------------------------|

(0.31-0.35)
d|-------------------------------------------------------------------------|
A|-------------------------------------------------------------------------|
F|-------------------------------------------------------------------------|
C|-------------------------------------------------------------------------|
G|-------------------------------------------------------------------------|
C|-0-0-3----3-3-5----------------------------------------------------------|

Pre-chorus (0.35-0.45)
d|-------------------------------------------------------------------------|
A|-------------------------------------------------------------------------|
F|-------------------------------------------------------------------------|
C|-333-111-0000000000-/888-777-5555555555----------------------------------|
G|-333-111-0000000000-/888-777-5555555555----------------------------------|
C|-333-111-0000000000-/888-777-5555555555----------------------------------|
x2

End with
e|-------------------------------------------------------------------------|
A|-------------------------------------------------------------------------|
F|-------------------------------------------------------------------------|
C|-0000--------------------------------------------------------------------|
G|-0000--------------------------------------------------------------------|
C|-0000--------------------------------------------------------------------|
   ....

Chorus (0.45-0.56)
d|-------------------------------------------------------------------------|
A|-------------------------------------------------------------------------|
F|-------------------------------------------------------------------------|
C|-00000000-33333333-88888888-55555555-------------------------------------|
G|-00000000-33333333-88888888-55555555-------------------------------------|
C|-00000000-33333333-88888888-55555555-------------------------------------|
x2

Repeat verse 1 riff

Verse 2 (1.08-1.30)
e|---------------------------------------------------------------------------|
A|---------------------------------------------------------------------------|
F|---------------------------------------------------------------------------|
C|---------------------------------------------------------------------------|
G|---------------------------------------------------------------------------|
C|-1-1-0---1-1-0---1-1-3---3-3-5---------------------------------------------|

Repeat pre-chorus
Repeat chorus

Bridge- I'm really unsure on this part
d|-------------------------------------------------------------------------|
A|-------------------------------------------------------------------------|
F|-------------------------------------------------------------------------|
C|-0-1b1b2-0-1b2b1-0-3b5b3-0-3b5b3-0-------0-------0-----------------------|
G|-0-------0-------0-------0-------0-4b5b5-0-4b5b4-0-----------------------|
C|-0-------0-------0-------0-------0-------0-------0-----------------------|
x2

d|---------------------------------------------------------------------------|
A|---------------------------------------------------------------------------|
F|---------------------------------------------------------------------------|
C|-0-0-3-3-8-8-5-5---0-0-3-3-8-8-1-1-----------------------------------------|
G|-0-0-3-3-8-8-5-5---0-0-3-3-8-8-1-1-----------------------------------------|
C|-0-0-3-3-8-8-5-5---0-0-3-3-8-8-1-1-----------------------------------------|

Chorus 3
d|-------------------------------------------------------------------------|
A|-------------------------------------------------------------------------|
F|-------------------------------------------------------------------------|
C|-00000000-33333333-11-11-11-11-11-11-11-11-11xx11x11---------------------|
G|-00000000-33333333-11-11-11-11-11-11-11-11-11xx11x11---------------------|
C|-00000000-33333333-11-11-11-11-11-11-11-11-11xx11x11---------------------|
Play once, then play the chorus as before

Repeat the verse riff and done :)

| /  slide up
| \  slide down
| h  hammer-on
| p  pull-off
| ~  vibrato
| +  harmonic
| x  Mute note
Tap to rate this tab
 
# A B C D E F G H I J K L M N O P Q R S T U V W X Y Z