Song name
# A B C D E F G H I J K L M N O P Q R S T U V W X Y Z

Sick Puppies - I Hate You tab

Song: I Hate You
Artist: Sick Puppies
Tuning: Drop C: CGCFAD

Legend:     / slide up     \slide down     ~ hold out note     . palm mute

            b bend     r return from bend     x scratch note   * harmonic 

Intro/Verse (play once before Shim sings, and once after)
|--------------------------------------|
|--------------------------------------|
|-10\7~~~------------------------------|
|---------7/10~~-7-7b8r7-3~~~-7~~~-3-2-|
|--------------------------------------|
|--------------------------------------|

Pre-Chorus
|-------------------------------------------------------|
|-------------------------------------------------------|
|-----------7~~~------------5~~~------------7~~~--------|
|-8--8--8---------7--7--7---------8--8--8---------1~~~~-|
|-8--8--8---------7--7--7---------8--8--8---------1~~~~-|
|-8--8--8---------7--7--7---------8--8--8---------1~~~~-|
  .  .  .         .  .  .         .  .  .
Chorus 
|-----------------------------------------------------|
|-----------------------------------------------------|
|-----------------------------------------------------|
|-8-8-8-8-7-7-7-7-0-0-0-0-11-11-11-11-8-8-8-8-7-7-7-7-|
|-8-8-8-8-7-7-7-7-0-0-0-0-11-11-11-11-8-8-8-8-7-7-7-7-|
|-8-8-8-8-7-7-7-7-0-0-0-0-11-11-11-11-8-8-8-8-7-7-7-7-|

|---------------------------------------------------------|
|---------------------------------------------------------|
|-7----9-9---10-10----------------------------------------|
|-7----9-9---10-10---8-8--8-8-8-8-7-7-7-7-5-5-5-5-7-7-7-7-|
|-5----7-7---8--8----8-8--8-8-8-8-7-7-7-7-5-5-5-5-7-7-7-7-|
|--000-----0-------0-8-8--8-8-8-8-7-7-7-7-5-5-5-5-7-7-7-7-|
   ...     .       .                                                      x2
|---------------------------------|----------------------------------------|
|---------------------------------|----------------------------------------|
|---------------------------------|---------------/11---------------/12-11-|
|-6-6-6-6-6-6-6-6-5-5-5-5-5-5-5-5-|-5/7-0x-5/7-0x-----5/7-0x-5/7-0x--------|
|-6-6-6-6-6-6-6-6-5-5-5-5-5-5-5-5-|-3/5-0x-3/5-0x-----3/5-0x-3/5-0x--------|
|-6-6-6-6-6-6-6-6-5-5-5-5-5-5-5-5-|-----0x-----0x---------0x-----0x--------|
  . . . . . . . . . . . . . . . . 
Verse 2 (this part is hard to hear, but it IS played)      x2     
|-----------------------------------------------------------|
|-----------------------------------------------------------|
|-----------------------------------------------------------|
|-----------------------------------------------------------|
|-----------3-5-----------3-5----------3-5------------3-5-3-|
|-0-0-0-000-----3-3-3-333-----5-5-5-555-----3-3-3-333-------|
  . . . ... . . . . . ... . . . . . ... . . . . . ...
|------------------------------------|
|------------------------------------|
|-10\7~~~----------------------------|
|---------7/10~~-7b8r7-3~~~-7~~~-3-2-|
|------------------------------------|
|------------------------------------|

Pre-Chorus 2
|------------------------------------------------------------------|
|------------------------------------------------------------------|
|-----------7~~~------------5~~~------------7~~~-------------------|
|-8--8--8---------7--7--7---------8--8--8---------1-1-1-1-1-1-xxxx-|
|-8--8--8---------7--7--7---------8--8--8---------1-1-1-1-1-1-xxxx-|
|-8--8--8---------7--7--7---------8--8--8---------1-1-1-1-1-1-xxxx-|

Chorus 2
|-----------------------------------------------------|
|-----------------------------------------------------|
|-----------------------------------------------------|
|-8-8-8-8-7-7-7-7-0-0-0-0-11-11-11-11-8-8-8-8-7-7-7-7-|
|-8-8-8-8-7-7-7-7-0-0-0-0-11-11-11-11-8-8-8-8-7-7-7-7-|
|-8-8-8-8-7-7-7-7-0-0-0-0-11-11-11-11-8-8-8-8-7-7-7-7-|

|---------------------------------------------------------|
|---------------------------------------------------------|
|-7----9-9---10-10----------------------------------------|
|-7----9-9---10-10---8-8--8-8-8-8-7-7-7-7-5-5-5-5-7-7-7-7-|
|-5----7-7---8--8----8-8--8-8-8-8-7-7-7-7-5-5-5-5-7-7-7-7-|
|--000-----0-------0-8-8--8-8-8-8-7-7-7-7-5-5-5-5-7-7-7-7-|
   ...     .       .
|------------------------------------|--------------------------------------|
|------------------------------------|--------------------------------------|
|------------------------------------|--------------/11---------------/12-11|
|-6-6-6-6-6-6-6-6-5-5-5-5-5-5-xxxxxx-|5/7-0x-5/7-0x-----5/7-0x-5/7-0x-------|
|-6-6-6-6-6-6-6-6-5-5-5-5-5-5-xxxxxx-|3/5-0x-3/5-0x-----3/5-0x-3/5-0x-------|
|-6-6-6-6-6-6-6-6-5-5-5-5-5-5-xxxxxx-|----0x-----0x---------0x-----0x-------|

|----------------------------------------|
|----------------------------------------|
|---------------/11----------------------|
|-5/7-0x-5/7-0x-----5/7-0x-5/7-0x-xxxxxx-|
|-3/5-0x-3/5-0x-----3/5-0x-3/5-0x-xxxxxx-|
|-----0x-----0x---------0x-----0x-xxxxxx-|

Bridge
|---------------------------------------------------------------|
|---------------------------------------------------------------|
|-----------------------------------7*-7*-7*-7*-----------------|
|-5/7-0x-5/7-0000-5/7-0x-5/7-0x-----------------5/7-0x-5/7-0000-|
|-3/5-0x-3/5-0000-3/5-0x-3/5-0x-----------------3/5-0x-3/5-0000-|
|-----0x-----0000-----0x-----0x---------------------0x-----0000-|
             ....                                      ....
|--------------------------|-----------------------------------------------|
|--------------------------|-----------------------------------------------|
|---------------7*-7*------|-------------------------------------10-9-10-9-|
|-5/7-0x-5/7-0x------7*-7*-|-0-0-----3-3------8-8------7\------------------|
|-3/5-0x-3/5-0x------------|-0-0-----3-3------8-8------7\------------------|
|-----0x-----0x------------|-0-0-----3-3------8-8------7\------------------|

Chorus 3
|-----------------------------------------------------|
|-----------------------------------------------------|
|-----------------------------------------------------|
|-8-8-8-8-7-7-7-7-0-0-0-0-11-11-11-11-8-8-8-8-7-7-7-7-|
|-8-8-8-8-7-7-7-7-0-0-0-0-11-11-11-11-8-8-8-8-7-7-7-7-|
|-8-8-8-8-7-7-7-7-0-0-0-0-11-11-11-11-8-8-8-8-7-7-7-7-|

|---------------------------------------------------------|
|---------------------------------------------------------|
|-7----9-9---10-------------------------------------------|
|-7----9-9---10-----------8-8-8-8-7-7-7-7-5-5-5-5-7-7-7-7-|
|-5----7-7---8--888888888-8-8-8-8-7-7-7-7-5-5-5-5-7-7-7-7-|
|--000-----0--------------8-8-8-8-7-7-7-7-5-5-5-5-7-7-7-7-|
   ...     .    .........
|---------------------------------|
|---------------------------------|
|---------------------------------|
|-6-6-6-6-6-6-6-6-5-5-5-5-5-5-5-5-|
|-6-6-6-6-6-6-6-6-5-5-5-5-5-5-5-5-|
|-6-6-6-6-6-6-6-6-5-5-5-5-5-5-5-5-|
  . . . . . . . . . . . . . . . .

Outro
|---------------------------------------------------------------------------|
|---------------------------------------------------------------------------|
|-------7-------7-------7------------------7-------7--7----9-9---10-10------|
|-8-8---7-7-7---7-0-0---7-11-11------8-8---7-7-7---7--7----9-9---10-10---7-7|
|-8-8---5-7-7---5-0-0---5-11-11-0-0--8-8---5-7-7---5--5----7-7---8--8----7-7|
|-8-8-0---7-7-0---0-0-0---11-11-0-0--8-8-0---7-7-0-----000-----0-------0-7-7|
      .       .       .         . .      .       .     ...     .       .
|------------------------------------------------------------------|
|------------------------------------------------------------------|
|-------7-------7-------7------------------------------------------|
|-8-8---7-7-7---7-5-5---7-3-3------6-6-6-6-6-6-6-6-5-5-5-5-5-5-5-5-|
|-8-8---5-7-7---5-5-5---5-3-3------6-6-6-6-6-6-6-6-5-5-5-5-5-5-5-5-|
|-8-8-0---7-7-0---5-5-0---3-3-0-8\-6-6-6-6-6-6-6-6-5-5-5-5-5-5-5-5-|
                                   . . . . . . . . . . . . . . . . 
|-----------------------------------------------------------------------|
|-----------------------------------------------------------------------|
|---------------/11----------------------------------/11----------------|
|-5/7-0x-5/7-0x-----5/7-0x-5/7-0x-xxxx-5/7-0x-5/7-0x-----5/7-0x-5/7-0~~-|
|-3/5-0x-3/5-0x-----3/5-0x-3/5-0x-xxxx-3/5-0x-3/5-0x-----3/5-0x-3/5-0~~-|
|-----0x-----0x---------0x-----0x-xxxx-----0x-----0x---------0x-----0~~-|

Enjoy!
Tap to rate this tab
 
# A B C D E F G H I J K L M N O P Q R S T U V W X Y Z