Song name
# A B C D E F G H I J K L M N O P Q R S T U V W X Y Z

Sick Puppies - So What I Lied tab

Song: So What I Lied
Artist: Sick Puppies
Album: Tri-Polar
Tuning: Drop C; CGCFAD

Most of the song is played by one guitar, but during the bridge, two guitars play together. Enjoy!

Legend:     / slide up     \ slide down     b bend     r return from bend

            x scratch note . palm mute      ~ hold out note   

Intro/Verse 1                                                        x4
|---------------------------------------------------------------------|
|---------------------------------------------------------------------|
|-10--10--10--10---9---9---9---9---12--12--12--12---10--10---9---9----|
|---12--12--12--12--12--12--12--12---12--12--12--12---12--12--12--12--|
|---------------------------------------------------------------------|
|---------------------------------------------------------------------|

Chorus 1
|---------------------------------|----------------------------------|
|---------------------------------|----------------------------------|
|---------------------------------|-----7-----7---7-----5-----5---5--|
|-8-8-8-8-8-8-8-8-1-1-1-1-1-1-1-1-|-0-0-7-0-0-7-0-7-3-3-5-3-3-5-3-5--|
|-8-8-8-8-8-8-8-8-1-1-1-1-1-1-1-1-|-0-0-5-0-0-5-0-5-3-3-3-3-3-3-3-3--|
|-8-8-8-8-8-8-8-8-1-1-1-1-1-1-1-1-|-0-0---0-0---0---3-3---3-3---3----|

|---------------------------------|-----------------------------------------|
|---------------------------------|-----------------------------------------|
|---------------------------------|-----------------------------------------|
|-8-8-8-8-8-8-8-8-1-1-1-1-1-1-1-1-|-00-4-04-0--04-0-0-4--00-5-05-0--05-0-0-5|
|-8-8-8-8-8-8-8-8-1-1-1-1-1-1-1-1-|-00-4-04-0--04-0-0-4--00-5-05-0--05-0-0-5|
|-8-8-8-8-8-8-8-8-1-1-1-1-1-1-1-1-|-00-4-04-0--04-0-0-4--00-5-05-0--05-0-0-5|

|----------------------------------------------|
|----------------------------------------------|
|----------------------------------------------|
|-00-7-07-0--07-0-0-7--00-8-08-0--08\----------|
|-00-7-07-0--07-0-0-7--00-8-08-0--08\-1-0-1-0--|
|-00-7-07-0--07-0-0-7--00-8-08-0--08\-1-0-1-0--|

Verse 2 (In the song it's played x1, but it also works if you play it x2)
|---------------------------------------------------------------------|
|---------------------------------------------------------------------|
|-10--10--10--10---9---9---9---9---12--12--12--12---10--10---9---9----|
|---12--12--12--12--12--12--12--12---12--12--12--12---12--12--12--12--|
|---------------------------------------------------------------------|
|---------------------------------------------------------------------|

Chorus 2
|---------------------------------|----------------------------------|
|---------------------------------|----------------------------------|
|---------------------------------|-----7-----7---7-----5-----5---5--|
|-8-8-8-8-8-8-8-8-1-1-1-1-1-1-1-1-|-0-0-7-0-0-7-0-7-3-3-5-3-3-5-3-5--|
|-8-8-8-8-8-8-8-8-1-1-1-1-1-1-1-1-|-0-0-5-0-0-5-0-5-3-3-3-3-3-3-3-3--|
|-8-8-8-8-8-8-8-8-1-1-1-1-1-1-1-1-|-0-0---0-0---0---3-3---3-3---3----|

|---------------------------------|-----------------------------------------|
|---------------------------------|-----------------------------------------|
|---------------------------------|-----------------------------------------|
|-8-8-8-8-8-8-8-8-1-1-1-1-1-1-1-1-|-00-4-04-0--04-0-0-4--00-5-05-0--05-0-0-5|
|-8-8-8-8-8-8-8-8-1-1-1-1-1-1-1-1-|-00-4-04-0--04-0-0-4--00-5-05-0--05-0-0-5|
|-8-8-8-8-8-8-8-8-1-1-1-1-1-1-1-1-|-00-4-04-0--04-0-0-4--00-5-05-0--05-0-0-5|

|----------------------------------------------|
|----------------------------------------------|
|----------------------------------------------|
|-00-7-07-0--07-0-0-7--00-8-08-0--08\----------|
|-00-7-07-0--07-0-0-7--00-8-08-0--08\-1-0-1-0--|
|-00-7-07-0--07-0-0-7--00-8-08-0--08\-1-0-1-0--|

Before the bridge, the bass plays for a bit. 

Bridge
Guitar 1 (w/ flanger and chorus
|----------------------------------------------------------------|
|----------------------------------------------------------------|
|----------------------------------------------------------------|
|-10~~~~~~~~-----------10~~~~~~~~-------------12~~~~~~~~~~~~~----|
|----------------------------------------------------------------|
|----------------------------------------------------------------|

Guitar 2
|----------------------------------------------------------------|
|----------------------------------------------------------------|
|----------------------------------------------------------------|
|-00-4-04-0--04-0-0-4--00-5-05-0--05-0-0-5--00-7-07-0--07-0-0-7--|
|-00-4-04-0--04-0-0-4--00-5-05-0--05-0-0-5--00-7-07-0--07-0-0-7--|
|-00-4-04-0--04-0-0-4--00-5-05-0--05-0-0-5--00-7-07-0--07-0-0-7--|

Guitar 1
|----------------------------|
|----------------------------|
|----------------------------|
|-12b13~~~r12~~~~~-----------|
|----------------------------|
|----------------------------|

Guitar 2
|----------------------|
|----------------------|
|----------------------|
|-00-8-08-0--08\-xxxx--|
|-00-8-08-0--08x-xxxx--|
|-00-8-08-0--08\-xxxx--|

Guitar 1
|---------------------------------| 
|-10~~-13~~-----------------------| 
|-----------10--12--14b15~~r14-14~| 
|---------------------------------| 
|---------------------------------|  
|---------------------------------|   
                                       
Guitar 2                                
|---------------------------------|
|---------------------------------|
|---------------------------------|
|-8-8-8-8-8-8-8-8-1-1-1-1-1-1-1-1-|
|-8-8-8-8-8-8-8-8-1-1-1-1-1-1-1-1-|
|-8-8-8-8-8-8-8-8-1-1-1-1-1-1-1-1-|

Guitar 1
|---------------------------------|
|---------------------------------|
|-----7-----7---7-----5-----5---5-|
|-0-0-7-0-0-7-0-7-3-3-5-3-3-5-3-5-|
|-0-0-5-0-0-5-0-5-3-3-3-3-3-3-3-3-|
|-0-0---0-0---0---3-3---3-3---3---|

Guitar 2
|---------------------------------|
|---------------------------------|
|---------------------------------|
|---------------------------------|
|---------------------------------|
|---------------------------------|

Guitar 1
|-----------------------------------|
|-10~~-13~~-------------------------|
|-----------10--12--14b15~~r14-14~--|
|-----------------------------------|
|-----------------------------------|
|-----------------------------------|

Guitar 2
|-----------------------------------|
|-----------------------------------|
|-----------------------------------|
|-8-8-8-8-8-8-8-8-1-1-1-1-1-1-1-1-0-|
|-8-8-8-8-8-8-8-8-1-1-1-1-1-1-1-1-0-|
|-8-8-8-8-8-8-8-8-1-1-1-1-1-1-1-1-0-|

Verse 3                                                              x3
|---------------------------------------------------------------------|
|---------------------------------------------------------------------|
|-10--10--10--10---9---9---9---9---12--12--12--12---10--10---9---9----|
|---12--12--12--12--12--12--12--12---12--12--12--12---12--12--12--12--|
|---------------------------------------------------------------------|
|---------------------------------------------------------------------|

Chorus 3
|-----------------------------------|----------------------------------|
|-----------------------------------|----------------------------------|
|-----------7/8\7-------------7/8\7-|-----7-----7---7-----5-----5---5--|
|-8-8-------x-x-x---1-1-------x-x-x-|-0-0-7-0-0-7-0-7-3-3-5-3-3-5-3-5--|
|-8-8-------5/6\5---1-1-------5/6\5-|-0-0-5-0-0-5-0-5-3-3-3-3-3-3-3-3--|
|-8-8---------------1-1-------------|-0-0---0-0---0---3-3---3-3---3----|

|-------------------------------------|----------------------|
|-------------------------------------|----------------------|
|-------------------------------------|----------------------|
|-8-8-8-8-8-8-8-8-1-1-1-1-xxxx-xxxxxx-|-00-4-04-0--04-0-0-4--|
|-8-8-8-8-8-8-8-8-1-1-1-1-xxxx-xxxxxx-|-00-4-04-0--04-0-0-4--|
|-8-8-8-8-8-8-8-8-1-1-1-1-xxxx-xxxxxx-|-00-4-04-0--04-0-0-4--|

|------------------------------------------------------------------|
|------------------------------------------------------------------|
|------------------------------------------------------------------|
|-00-5-05-0--05-0-0-5--00-7-07-0--07-0-0-7--00-8-08-0--08\-1-0-1-0-|
|-00-5-05-0--05-0-0-5--00-7-07-0--07-0-0-7--00-8-08-0--08\-1-0-1-0-|
|-00-5-05-0--05-0-0-5--00-7-07-0--07-0-0-7--00-8-08-0--08\-1-0-1-0-|

|----------------------------------------------------------------|
|----------------------------------------------------------------|
|---------------7/8\7----------------7/8\7----------------7/8\7--|
|-00-4-04-0--04-x/x\x--00-5-05-0--05-x/x\x--00-7-07-0--07-x/x\x--|
|-00-4-04-0--04-5/6\5--00-5-05-0--05-5/6\5--00-7-07-0--07-5/6\5--|
|-00-4-04-0--04--------00-5-05-0--05--------00-7-07-0--07--------|

|---------------------|
|---------------------|
|---------------------|
|-00-8-08-0--08\-xxxx-|
|-00-8-08-0--08\-xxxx-|
|-00-8-08-0--08\-xxxx-|

Outro
|----------------------------------------------|
|----------------------------------------------|
|-7/8\7-------7/8\7------7/8\7-----------------|
|-x/x\x-0-0-x-x/x\x-0~~--x/x\x-0-0-x-0-3~-0-1~-|
|-5/6\5-0-0-x-5/6\5-0~~--5/6\5-0-0-x-0-3~-0-1~-|
|-------0-0-x-------0~~--------0-0-x-0-3~-0-1~-|
                                     .    .
|-------------------------------------------------------------|
|-------------------------------------------------------------|
|-7/8\7-------7/8\7------7/8\7--------------------------------|
|-x/x\x-0-0-x-x/x\x-0~~--x/x\x-0-0-x-----------0-0~~~~~~~~~~~-|
|-5/6\5-0-0-x-5/6\5-0~~--5/6\5-0-0-x-------------0~~~~~~~~~~~-|
|-------0-0-x-------0~~--------0-0-x-3-1-0-1-0---0~~~~~~~~~~~-|
                                     . . . . . 
That's it! Enjoy, because this is an awesome song!!!
Tap to rate this tab
# A B C D E F G H I J K L M N O P Q R S T U V W X Y Z