Guitaretab - guitar tabs
Song name
# A B C D E F G H I J K L M N O P Q R S T U V W X Y Z

Sick Puppies - In It For Life tab

Sick Puppies
In it for Life
Tri-Polar
Tuning: CGCFAD
Key: . palm mute     x scratch note     ~ vibrato     ( ) optional note

     h hammer on     p pull off     / slide up

Intro/Verse 1                                                          x6
|-----------------------------------------------------------------------|
|-----------------------------------------------------------------------|
|-----------------------------------------10-10-10--10-10-10------------|
|-13-13-13--13-13-13-13--13-13--13-13-13--10-10-10--10-10-10--10--10-10-|
|-10-10-10--10-10-10-10--10-10--10-10-10--8--8--8---8--8--8---10--10-10-|
|-10-10-10--10-10-10-10--10-10--10-10-10----------------------10--10-10-|
             Do this part to replace the last five notes on 6th time.
|----------|----------------------|
|----------|----------------------|
|----------|----------------------|
|-12-12-12-|----------------------|
|-10-10-10-|----------------------|
|-10-10-10-|-10-10-10-10-10-10-10-|

Pre-Chorus
|---------------------------------|
|---------------------------------|
|-5-5-5-5-5-5-5-5-----------------|
|-5-5-5-5-5-5-5-5-0-0-0-0-5-5-5-5-|
|-3-3-3-3-3-3-3-3-0-0-0-0-5-5-5-5-|
|-----------------0-0-0-0-5-5-5-5-|
  . . . . . . . . . . . . .
Chorus                                                           x2
|-----------------------------------------------------------------|
|-----------------------------------------------------------------|
|-5-5-5-5-5-5-5-5-----------------------------------------3-3-3-3-|
|-5-5-5-5-5-5-5-5-6-6-6-6-6-6-6-6-3-3-3-3-3-3-3-3-1-1-1-1-3-3-3-3-|
|-3-3-3-3-3-3-3-3-6-6-6-6-6-6-6-6-3-3-3-3-3-3-3-3-1-1-1-1-1-1-1-1-|
|-----------------6-6-6-6-6-6-6-6-3-3-3-3-3-3-3-3-1-1-1-1---------|

|-----------------------------------------------------------------|
|-----------------------------------------------------------------|
|-5-5-5-5-5-5-5-5-------------------------3-3-3-3-----------------|
|-5-5-5-5-5-5-5-5-6-6-6-6-6-6-6-6-1-1-1-1-3-3-3-3-x-x-x-x-x-x-x-x-|
|-3-3-3-3-3-3-3-3-6-6-6-6-6-6-6-6-1-1-1-1-1-1-1-1-x-x-x-x-x-x-x-x-|
|-----------------6-6-6-6-6-6-6-6-1-1-1-1---------x-x-x-x-x-x-x-x-|

Verse 2
|----------------------------------------------------------------------|
|----------------------------------------------------------------------|
|-----------------------------------------10-10-10--10-10-10-----------|
|-13-13-13--13-13-13-13--13-13--13-13-13--10-10-10--10-10-10-10--10-10-|
|-10-10-10--10-10-10-10--10-10--10-10-10--8--8--8---8--8--8--10--10-10-|
|-10-10-10--10-10-10-10--10-10--10-10-10---------------------10--10-10-|
            Play this to replace the last five notes on the 6th time.
|----------|----------------------|
|----------|----------------------|
|----------|----------------------|
|-12-12-12-|----------------------|
|-10-10-10-|----------------------|
|-10-10-10-|-10-10-10-10-10-10-10-|
[ Tab from: http://www.guitaretab.com/s/sick-puppies/204593.html ]
Pre-Chorus 2
|---------------------------------|
|---------------------------------|
|-5-5-5-5-5-5-5-5-----------------|
|-5-5-5-5-5-5-5-5-0-0-0-0-5-5-5-5-|
|-3-3-3-3-3-3-3-3-0-0-0-0-5-5-5-5-|
|-----------------0-0-0-0-5-5-5-5-|
  . . . . . . . . . . . . .
Chorus 2                                                         x2
|-----------------------------------------------------------------|
|-----------------------------------------------------------------|
|-5-5-5-5-5-5-5-5-----------------------------------------3-3-3-3-|
|-5-5-5-5-5-5-5-5-6-6-6-6-6-6-6-6-3-3-3-3-3-3-3-3-1-1-1-1-3-3-3-3-|
|-3-3-3-3-3-3-3-3-6-6-6-6-6-6-6-6-3-3-3-3-3-3-3-3-1-1-1-1-1-1-1-1-|
|-----------------6-6-6-6-6-6-6-6-3-3-3-3-3-3-3-3-1-1-1-1---------|

|-------------------------------------------------|
|-------------------------------------------------|
|-5-5-5-5-5-5-5-5-------------------------3-3-3-3-|
|-5-5-5-5-5-5-5-5-6-6-6-6-6-6-6-6-1-1-1-1-3-3-3-3-|
|-3-3-3-3-3-3-3-3-6-6-6-6-6-6-6-6-1-1-1-1-1-1-1-1-|
|-----------------6-6-6-6-6-6-6-6-1-1-1-1---------|

Bridge
|-----------------------------------|
|-----------------------------------|
|-5-5-5----5----5-5-5-5-5-5-5-5-5-5-|
|-5-5-5----5----5-5-5-5-5-5-5-5-5-5-|
|-3-3-3-3--3-3--3-3-3-3-3-3-3-3-3-3-|
|-----------------------------------|
        .  . .  . . . . . 
After Shim sings, play this.
|-------------------------------------------------------------------------|
|----------------------------------------------------3~(3)3h4-3h4-3h4p3---|
|-5-5-5~(5)5-5-4~(4)------------------5-5-5~(5)-5-5---------------------4-|
|-5-5------5-5--------5h6-5h6-5h6p5p3-5-5-------5-5-----------------------|
|-3-3------3-3------------------------3-3-------3-3-----------------------|
|-------------------------------------------------------------------------|

Solo
|-----------------------------------------------------------------|
|-11-11-11-13-13-11-11--11-----13-13-11-11-----------13-13-11-11--|
|--------------------------8-8--------------12-12-12--------------|
|-----------------------------------------------------------------|
|-----------------------------------------------------------------|
|-----------------------------------------------------------------|

|-----------------------|
|-----------------------|
|-12h13p12-10--12-10----|
|--------------------13-|
|-----------------------|
|-----------------------|

Chorus 3                                                         x2
|-----------------------------------------------------------------|
|-----------------------------------------------------------------|
|-5-5-5-5-5-5-5-5-----------------------------------------3-3-3-3-|
|-5-5-5-5-5-5-5-5-6-6-6-6-6-6-6-6-3-3-3-3-3-3-3-3-1-1-1-1-3-3-3-3-|
|-3-3-3-3-3-3-3-3-6-6-6-6-6-6-6-6-3-3-3-3-3-3-3-3-1-1-1-1-1-1-1-1-|
|-----------------6-6-6-6-6-6-6-6-3-3-3-3-3-3-3-3-1-1-1-1---------|

|-------------------------------------------------|
|-------------------------------------------------|
|-5-5-5-5-5-5-5-5-------------------------3-3-3-3-|
|-5-5-5-5-5-5-5-5-6-6-6-6-6-6-6-6-1-1-1-1-3-3-3-3-|
|-3-3-3-3-3-3-3-3-6-6-6-6-6-6-6-6-1-1-1-1-1-1-1-1-|
|-----------------6-6-6-6-6-6-6-6-1-1-1-1---------|

Outro                                                                x2
|---------------------------------------------------------------------|
|---------------------------------------------------------------------|
|---------------------------------------------------------------------|
|-10-10-10--10-10-10-10--10-10--10-10-10--6-6-6--6-6-6--3--3-3--3-3-3-|
|-10-10-10--10-10-10-10--10-10--10-10-10--6-6-6--6-6-6--3--3-3--3-3-3-|
|-10-10-10--10-10-10-10--10-10--10-10-10--6-6-6--6-6-6--3--3-3--3-3-3-|
                                           x2
|-------------------------------------------|--------| End of the song is 
|-------------------------------------------|--------| finished w/ Emma and
|----5---5---5---5---5----7---7---8---8---3-|--------| Mark.
|----5---5---5---5---5----7---7---8---8---3-|--------|
|-33-3-3-3-3-3-3-3-3-3-55-5-5-5-5-6-6-6-6-1-|-/5~~~~-|
|-------------------------------------------|--------|
  ..   .   .   .   .   ..   .   .   .   .
Related for In It For Life tab
In It For Life chords by Sick Puppies