Song name
# A B C D E F G H I J K L M N O P Q R S T U V W X Y Z

Sick Puppies - Dead Space tab

Sick Puppies
Dead Space
Tuning: CGCFAD

Key:     p pull off     x scratch note   

Intro/ Verse 1 (It's a bit of a stretch.)       x6
|------------------------------------------------|
|-3--3--3--3--3--3--3--3--3--3--3--3--3--3--3--3-|
|-7--7--7--7--7--7--7--7--7--7--7--7--7--7--7--7-|
|------------------------------------------------|
|------------------------------------------------|
|------------------------------------------------|

Chorus 1
|-----------------------------------------------------------------|
|-----------------------------------------------------------------|
|-------------------------------------------------5-5-5-5-5-5-5-5-|
|-8-8-8-8-8-8-8-8-8-8-8-8-7-7-7-7-0-0-0-0-0-0-0-0-5-5-5-5-5-5-5-5-|
|-8-8-8-8-8-8-8-8-8-8-8-8-7-7-7-7-0-0-0-0-0-0-0-0-3-3-3-3-3-3-3-3-|
|-8-8-8-8-8-8-8-8-8-8-8-8-7-7-7-7-0-0-0-0-0-0-0-0-----------------|

|-----------------------------------------------------------------|
|-----------------------------------------------------------------|
|---------------------------------5-5-5-5-5-5-5-5-5-5-5-5-5-5-5-5-|
|-8-8-8-8-8-8-8-8-8-8-8-8-7-7-7-7-5-5-5-5-5-5-5-5-5-5-5-5-5-5-5-5-|
|-8-8-8-8-8-8-8-8-8-8-8-8-7-7-7-7-3-3-3-3-3-3-3-3-3-3-3-3-3-3-3-3-|
|-8-8-8-8-8-8-8-8-8-8-8-8-7-7-7-7---------------------------------|

|-------------------------------------------------------------|
|-------------------------------------------------------------|
|-------------------------------------------------5-5---5-5-5-|
|-8-8-8-8-8-8-8-8-8-8-8-8-7-7-7-7-0-0---0-0-0---0-5-5---5-5-5-|
|-8-8-8-8-8-8-8-8-8-8-8-8-7-7-7-7-0-0---0-0-0---0-3-3---3-3-3-|
|-8-8-8-8-8-8-8-8-8-8-8-8-7-7-7-7-0-0---0-0-0---0-------------|

|-----------------------------------------------------------------|
|-----------------------------------------------------------------|
|---------------------------------5-5-5-5-5-5-5-5-5-5-5-5-5-5-5-5-|
|-8-8-8-8-8-8-8-8-8-8-8-8-7-7-7-7-5-5-5-5-5-5-5-5-5-5-5-5-5-5-5-5-|
|-8-8-8-8-8-8-8-8-8-8-8-8-7-7-7-7-3-3-3-3-3-3-3-3-3-3-3-3-3-3-3-3-|
|-8-8-8-8-8-8-8-8-8-8-8-8-7-7-7-7---------------------------------|
  Dead,        Space!
|------------------------------------------------------------------|
|------------------------------------------------------------------|
|--------------------------9-9-9-9-9-9-9-9-10-10-10-10-10-10-10-10-|
|-0------------0-----------x-x-x-x-x-x-x-x-x-x-x-x-x-x-x-x-x-x-x-x-|
|-0---5p0-5p0--0---5p0-5p0-7-7-7-7-7-7-7-7-8--8--8--8--8--8--8--8--|
|-0------------0---------------------------------------------------|

Verse 2                                         x6
|------------------------------------------------|
|-3--3--3--3--3--3--3--3--3--3--3--3--3--3--3--3-|
|-7--7--7--7--7--7--7--7--7--7--7--7--7--7--7--7-|
|------------------------------------------------|
|------------------------------------------------|
|------------------------------------------------|

Chorus 2
|-----------------------------------------------------------------|
|-----------------------------------------------------------------|
|-------------------------------------------------5-5-5-5-5-5-5-5-|
|-8-8-8-8-8-8-8-8-8-8-8-8-7-7-7-7-0-0-0-0-0-0-0-0-5-5-5-5-5-5-5-5-|
|-8-8-8-8-8-8-8-8-8-8-8-8-7-7-7-7-0-0-0-0-0-0-0-0-3-3-3-3-3-3-3-3-|
|-8-8-8-8-8-8-8-8-8-8-8-8-7-7-7-7-0-0-0-0-0-0-0-0-----------------|

|-----------------------------------------------------------------|
|-----------------------------------------------------------------|
|---------------------------------5-5-5-5-5-5-5-5-5-5-5-5-5-5-5-5-|
|-8-8-8-8-8-8-8-8-8-8-8-8-7-7-7-7-5-5-5-5-5-5-5-5-5-5-5-5-5-5-5-5-|
|-8-8-8-8-8-8-8-8-8-8-8-8-7-7-7-7-3-3-3-3-3-3-3-3-3-3-3-3-3-3-3-3-|
|-8-8-8-8-8-8-8-8-8-8-8-8-7-7-7-7---------------------------------|

|-------------------------------------------------------------|
|-------------------------------------------------------------|
|-------------------------------------------------5-5---5-5-5-|
|-8-8-8-8-8-8-8-8-8-8-8-8-7-7-7-7-0-0---0-0-0---0-5-5---5-5-5-|
|-8-8-8-8-8-8-8-8-8-8-8-8-7-7-7-7-0-0---0-0-0---0-3-3---3-3-3-|
|-8-8-8-8-8-8-8-8-8-8-8-8-7-7-7-7-0-0---0-0-0---0-------------|

|-----------------------------------------------------------------|
|-----------------------------------------------------------------|
|---------------------------------5-5-5-5-5-5-5-5-5-5-5-5-5-5-5-5-|
|-8-8-8-8-8-8-8-8-8-8-8-8-7-7-7-7-5-5-5-5-5-5-5-5-5-5-5-5-5-5-5-5-|
|-8-8-8-8-8-8-8-8-8-8-8-8-7-7-7-7-3-3-3-3-3-3-3-3-3-3-3-3-3-3-3-3-|
|-8-8-8-8-8-8-8-8-8-8-8-8-7-7-7-7---------------------------------|
  Dead,        Space!
|------------------------------------------------------------------|
|------------------------------------------------------------------|
|--------------------------9-9-9-9-9-9-9-9-10-10-10-10-10-10-10-10-|
|-0------------0-----------x-x-x-x-x-x-x-x-x--x--x--x--x--x--x--x--|
|-0---5p0-5p0--0---5p0-5p0-7-7-7-7-7-7-7-7-8--8--8--8--8--8--8--8--|
|-0------------0---------------------------------------------------|

Bridge
|--------------------------------------------------------------|
|-----------------------------------------101010-888-666-555-5-|
|-------------------------9-9-9-9-9-9-9-9----------------------|
|-0-----------0-----------x-x-x-x-x-x-x-x----------------------|
|-0---5p0-5p0-0---5p0-5p0-7-7-7-7-7-7-7-7----------------------|
|-0-----------0------------------------------------------------|

Chorus 3
|-----------------------------------------------------------------|
|-----------------------------------------------------------------|
|-------------------------------------------------5-5-5-5-5-5-5-5-|
|-8-8-8-8-8-8-8-8-8-8-8-8-7-7-7-7-0-0-0-0-0-0-0-0-5-5-5-5-5-5-5-5-|
|-8-8-8-8-8-8-8-8-8-8-8-8-7-7-7-7-0-0-0-0-0-0-0-0-3-3-3-3-3-3-3-3-|
|-8-8-8-8-8-8-8-8-8-8-8-8-7-7-7-7-0-0-0-0-0-0-0-0-----------------|

|-----------------------------------------------------------------|
|-----------------------------------------------------------------|
|---------------------------------5-5-5-5-5-5-5-5-5-5-5-5-5-5-5-5-|
|-8-8-8-8-8-8-8-8-8-8-8-8-7-7-7-7-5-5-5-5-5-5-5-5-5-5-5-5-5-5-5-5-|
|-8-8-8-8-8-8-8-8-8-8-8-8-7-7-7-7-3-3-3-3-3-3-3-3-3-3-3-3-3-3-3-3-|
|-8-8-8-8-8-8-8-8-8-8-8-8-7-7-7-7---------------------------------|

|-------------------------------------------------------------|
|-------------------------------------------------------------|
|-------------------------------------------------5-5---5-5-5-|
|-8-8-8-8-8-8-8-8-8-8-8-8-7-7-7-7-0-0---0-0-0---0-5-5---5-5-5-|
|-8-8-8-8-8-8-8-8-8-8-8-8-7-7-7-7-0-0---0-0-0---0-3-3---3-3-3-|
|-8-8-8-8-8-8-8-8-8-8-8-8-7-7-7-7-0-0---0-0-0---0-------------|

|-----------------------------------------------------------------|
|-----------------------------------------------------------------|
|---------------------------------5-5-5-5-5-5-5-5-5-5-5-5-5-5-5-5-|
|-8-8-8-8-8-8-8-8-8-8-8-8-7-7-7-7-5-5-5-5-5-5-5-5-5-5-5-5-5-5-5-5-|
|-8-8-8-8-8-8-8-8-8-8-8-8-7-7-7-7-3-3-3-3-3-3-3-3-3-3-3-3-3-3-3-3-|
|-8-8-8-8-8-8-8-8-8-8-8-8-7-7-7-7---------------------------------|
  Dead,        Space!
|------------------------------------------------------------------|
|------------------------------------------------------------------|
|--------------------------9-9-9-9-9-9-9-9-10-10-10-10-10-10-10-10-|
|-0------------0-----------x-x-x-x-x-x-x-x-x--x--x--x--x--x--x--x--|
|-0---5p0-5p0--0---5p0-5p0-7-7-7-7-7-7-7-7-8--8--8--8--8--8--8--8--|
|-0------------0---------------------------------------------------|

Outro Play this x3 and then slow it down and move your fingers randomly down
|------------------------------------------------|the frets.
|-3--3--3--3--3--3--3--3--3--3--3--3--3--3--3--3-|
|-7--7--7--7--7--7--7--7--7--7--7--7--7--7--7--7-|
|------------------------------------------------|
|------------------------------------------------|
|------------------------------------------------|

That's it! Enjoy, rate, and comment!
Tap to rate this tab
# A B C D E F G H I J K L M N O P Q R S T U V W X Y Z