Song name
# A B C D E F G H I J K L M N O P Q R S T U V W X Y Z

Sick Puppies - White Balloons chords

Tab: Josh Fore
e-mail: jfore1@live.com

Tuning: EADGBe

(Play the notes as shown)

-------
Intro
-------
Bass Riff:
e|-------------------------------------------------------------------------|
B|-------------------------------------------------------------------------|
G|-------------------------------------------------------------------------|
D|------------6--7--9------9--6s7--6--7--6h7h6-------------9---------------|
A|-7----7--9--------------------------------------9--7---------7-----------|
E|----------------------------------------------------------------------5--|


Guitar Rift:  [almost sounds picked, but I think it is strummed]
    Esus2    Dsus2       [Drop Chords   A#     C#]
E --x---------x-|        ---------------x-------x-
A --7---------5-|        ---------------6-------4-
D --9---------7-|        ---------------9-------7-
G --9---------7-|        ---------------9-------7-
B --7---------5-|        ---------------x-------x-
e --7---------5-|        ---------------x-------x-

--------
Verse 1
--------
Esus2
I'm holding onto white balloons up against a sky of doom
(Bass Drops Down to A#)[use the guitar drop chords]
Tell me you see them

Dsus2
'Cause what's inside of me is invisible to most
(Bass Drops Down to C#)
Even in clear view

Esus2
I'm sending out a signal to the possibility of you
(Bass Drops Down to A#)
'Cause right at this moment

Dsus2
I know you're connected to a part of me
(Bass Drops to C#)
that I don't even know myself

--------
Chorus
--------
G
The changes in me

A		             E
Are likely to be like the weather

G	         A
Stormy and clear strength into

	   E
fear bound together

--------
Verse 2
--------
Esus2-----(Wait for bass to drop to A#)
But I'll break my silence

Dsus2
If I believed that you and me could ever be
(Bass to C#)
More than just what's been behind us

Esus2
I tried and left, they came and went I got rejected out again
(Bass to A#)
But no one believes me

Dsus2
I've worn a hundred faces Of the character replacements and now
Nobody sees me

G
The changes in me

    A   		     E
Are likely to be like the weather

G		  Asus2
Cloudy at best...

[Power Chords from here on]
   B    G   A  Db
E -7----3---5--9---|
A -9----5---7--11--|
D -9----5---7--11--|
G -x----x---x--x---|
B -x----x---x--x---|
e -x----x---x--x---|

B
Angels lift me

A
Are you with me?

G
I'm holding onto you like
A                        B     Db
I'm holding onto white balloons

	 E
Carry me away

                      G   A
I hope that you don't break

--------
Solo
--------
[Bass Solo] 
    [notes on the e string are bracketed because they are the guitar solo]
       Repeat 4x
E -[------------------]------------------------------------------------|
A -[-10----10--9----9-]--10----10---12----12---14--14---15--15--14-----|
D -[----12-------12---]-----12---------12--------12-------12-----------|
G -[------------------]------------------------------------------------|
B -[------------------]------------------------------------------------|
e -[------------------]-[12]----------------[14]------[15]-------------|
                        ^ Start guitar solo here

[Guitar Solo]
E -----------------------------------------------------------|
A -----------------------------------------------------------|
D -----------------------------------------------------------|
G -----------------------------------------------------------|
B ------------------------------------14h16p14-12h14p12------|
e -12--------14-------15-----14h15p14------------------------|


B
Angels lift me

A
Are you with me?

G
I'm holding onto you like
A                      B   Db
I'm holding onto white balloons

E
Carry me away

                      G   A
I hope that you don't break

                      G   A
I hope that you don't break

[Back to the intro rift]


Esus2
don't break

Dsus2
'Cause what's inside of me
is invisible to most
[instruments drop out]
Even in clear view
Tap to rate this tab
 
# A B C D E F G H I J K L M N O P Q R S T U V W X Y Z