Song name
# A B C D E F G H I J K L M N O P Q R S T U V W X Y Z

Sick Puppies - Riptide tab

Tuning: Drop D

This is my first tab. Comment, criticize, whatever just take it easy :)
Listen to the song to know when to let a chord ring and what not. Thanks.

I don't know if it'll submit like the preview is showing me but it keeps moving my palm
mute dots way off so...they are supposed to go under the 3 x5; 7 x6; and 5 x3 in the chorus.
You'll hear it.

INTRO/VERSE

e---------------------------------------------------------------------------|
B---------------------------------------------------------------------------|
G----------------------------5--5-x2----------------------------------------|
D-7--7--x2-5--5--x2----------5--5-----3--3--x2--5--5--7--7------------------|
A-7--7-----5--5-----5-7-5-0--3--3-----3--3------5--5--7--7------------------|
D-7--7-----5--5-----------------------3--3------5--5--7--7------------------|

CHORUS

e---------------------------------------------------------------------------|
B---------------------------------------------------------------------------|
G-5---------------------------------------5------------------------------5--|
D-5----5----3----3--x5--7--x6--5--x3--5---5--5---3--3--x2--7--7---5-5-5--5--|
A-3----5----3----3------7------5------5---3--5---3--3------7--7---5-5-5--3--|
D-5----5----3----3------7------5------5---5--5---3--3------7--7---5-5-5--5--|
                                         .               .               .
VERSE

CHORUS

BREAKDOWN
e-----------------------------------------------------------------------------|
B-----------------------------------------------------------------------------|
G-----------------------------------------------------------------------------|
D-----------------------------------------------------------------------------|
A-----------------------------------------------------------------------------|
D-0-00-10-0-8-0-7-0-3b-0-00-10-0-8-0-7-3-5-3b--repeat one time----------------|

CHORUS

BREAKDOWN

End on:
e---------|
B---------|
G-5-------|
D-5-------|
A-3-------|
D-5-------|

Enjoy.
Tap to rate this tab
# A B C D E F G H I J K L M N O P Q R S T U V W X Y Z