Song name
# A B C D E F G H I J K L M N O P Q R S T U V W X Y Z

Sick Puppies - Too Many Words tab

Sick Puppies - Too Man Words Intro Only

Saw the other version and decided to clean it up a bit - sounds dead on.

Guitar 1 - Clean
D|-------------------------------------------------------|
A|---1-----1-------1----1-------0-----0-------0----0h1---|
F|--0-0---0-------0-0--0-0-----0-0---0-0-----0-0--0---0--|  3x
C|-------------------------------------------------------|
G|-3-----3---3-2-0----0-----0-2-----2-----0-2----2-------|
C|-------------------------------------------------------|

D|----------------------|
A|-1-----1-----0--------|
F|-0-----0-----0--------|  1x
C|-x-----x-----x--------|
G|-3-----0-----2--------|
C|----------------------|

D|-------------------------------------------------------|
A|---1-----1-------1----1-------0-----0-------0----0h1---|
F|--0-0---0-------0-0--0-0-----0-0---0-0-----0-0--0---0--|  1x
C|-------------------------------------------------------|
G|-3-----3---3-2-0----0-----0-2-----2-----0-2----2-------|
C|-------------------------------------------------------|
Tap to rate this tab
 
# A B C D E F G H I J K L M N O P Q R S T U V W X Y Z