Song name
# A B C D E F G H I J K L M N O P Q R S T U V W X Y Z

Sick Puppies - Too Many Words tab

Here's the intro. It should be spot on. Listen to the song for timing. This is my 1st tab,
 if you like let me know, I have the rest of the song tabbed, just have to find time to post it.
 ENJOY!


Intro:

D|----------------------------------------------------------------------------|
A|----------------------------------------------------------------------------|
F|-----5-------5-----------5-------5---------4-------4---------4-------4h5----|
C|---5--5---5---5-------5---5---5---5-----5---5---5---5-----5---5---5-----5---|
G|-3------3-------3-2-0-------0-------0-2-------2-------0-2-------2-----------|
C|----------------------------------------------------------------------------|

D|------------------------------------------------------------------------------|
A|------------------------------------------------------------------------------|
F|--------5------5------------5-----5---------4-------4---------4------4h5------|
C|------5--5---5--5--------5---5--5--5-----5---5---5---5-----5---5---5----5-----|
G|0-2-3------3-------3-2-0------0------0-2-------2-------0-2-------2------------|
C|------------------------------------------------------------------------------|

D|------------------------------------------------------------------------------|
A|------------------------------------------------------------------------------|
F|--------5------5------------5-----5---------4-------4---------4------4h5------|
C|------5--5---5--5--------5---5--5--5-----5---5---5---5-----5---5---5----5-----|
G|0-2-3------3-------3-2-0------0------0-2-------2-------0-2-------2------------|
C|------------------------------------------------------------------------------|
Tap to rate this tab
# A B C D E F G H I J K L M N O P Q R S T U V W X Y Z