Sick Puppies - My World tab

e:--------------------------------------------------------------------------|
b:--------------------------------------------------------------------------|
g:-10-10-10-10-10-10---7-7-8-8-8-8-8-8-7-7----------------------------------|
d:--------------------------------------------------------------------------|
a:--------------------------------------------------------------------------|
d:--------------------------------------------------------------------------|

e:--------------------------------------------------------------------------|
b:--------------------------------------------------------------------------|
g:-10-10-10-10-10-10-10-10----8-8-8-8-7-7-7-7-------------------------------|
d:--------------------------------------------------------------------------|
a:--------------------------------------------------------------------------|
d:--------------------------------------------------------------------------|
Chorus
e:--------------------------------------------------------------------------|
b:--------------------------------------------------------------------------|
g:--8-8-8-8-8-8-8-----------------------------------------------------------|
d:--8-8-8-8-8-8-8-----10-10-------5-5-------8-7--7-7------------------------|
a:--6-6-6-6-6-6-6-----10-10-ect---5-5-ect---8-7--7-7------------------------|
d:--------------------10-10-------5-5-------8-7--7-7------------------------|


e:--------------------------------------------------------------------------|
b:--------------------------------------------------------------------------|
g:--8-8-8-8-8-8-8---------------------------------------8--5----------------|
d:--8-8-8-8-8-8-8-----10-10-------5-5-------8-7----8-8--8--5----------------|
a:--6-6-6-6-6-6-6-----10-10-ect---5-5-ect---8-7----8-8--6--3----------------|
d:--------------------10-10-------5-5-------8-7----8-8----------------------|

e:--------------------------------------------------------------------------|
b:--------------------------------------------------------------------------|
g:--8-8--------10-10--------------------------------------------------------|
d:--8-8-ect----10-10----ect-------------------------------------------------|
a:--6-6--------10-10--------------------------------------------------------|
d:--------------------------------------------------------------------------|
                         then back to hte intro

e:--------------------------------------------------------------------------|
b:--------------------------------------------------------------------------|
g:-10-10-10-10-10-10---7-7-8-8-8-8-8-8-7-7----------------------------------|
d:--------------------------------------------------------------------------|
a:--------------------------------------------------------------------------|
d:--------------------------------------------------------------------------|

e:--------------------------------------------------------------------------|
b:--------------------------------------------------------------------------|
g:-10-10-10-10-10-10-10-10----8-8-8-8-7-7-7-7-------------------------------|
d:--------------------------------------------------------------------------|
a:--------------------------------------------------------------------------|
d:--------------------------------------------------------------------------|
then back to the chorus
e:--------------------------------------------------------------------------|
b:--------------------------------------------------------------------------|
g:--8-8-8-8-8-8-8-----------------------------------------------------------|
d:--8-8-8-8-8-8-8-----10-10-------5-5-------8-7--7-7------------------------|
a:--6-6-6-6-6-6-6-----10-10-ect---5-5-ect---8-7--7-7------------------------|
d:--------------------10-10-------5-5-------8-7--7-7------------------------|


e:--------------------------------------------------------------------------|
b:--------------------------------------------------------------------------|
g:--8-8-8-8-8-8-8---------------------------------------8--5----------------|
d:--8-8-8-8-8-8-8-----10-10-------5-5-------8-7----8-8--8--5----------------|
a:--6-6-6-6-6-6-6-----10-10-ect---5-5-ect---8-7----8-8--6--3----------------|
d---------------------10-10-------5-5-------8-7----8-8----------------------|

e:--------------------------------------------------------------------------|
b:--------------------------------------------------------------------------|
g:--8-8--------10-10--------------------------------------------------------|
d:--8-8-ect----10-10----ect-------------------------------------------------|
a:--6-6--------10-10--------------------------------------------------------|
d:--------------------------------------------------------------------------|

                             Bridge
e:---------------------------------------------------------------------------|
b:---------------------------------------------------------------------------|
g:-8--8--8--8--7--7--7--7--10--10--10--10--10--10--10--7--8--8--8--8--7------|ect
d:--8--8--8--8--8--8--8--8---8---8---8---8---8---8---8---8--8--8--8--8--8----|
a:---------------------------------------------------------------------------|
d:---------------------------------------------------------------------------|
                           SOLO!
e:---------------------------------------------------------------------------|
b:-8-10-10-10-10-10-10-6-6-6-6-6-6-8h10-10-10-10-10-10-10--------------------|
g:--------------------------------------------------------5-5-5-5-5-5-5h7-7--|
g:7-7-7-7-7------------------------------------------------------------------|


e:-8-10-10-10-10-10-10-13-13-13-13-13--13-10-10-10--10-10-10-13-13-13-13----|
b:--------------------------------------------------------------------------|
g:--------------------------------------------------------------------------|
d:--------------------------------------------------------------------------|
a:--------------------------------------------------------------------------|
d:--------------------------------------------------------------------------|

e:
b:-6/8-----4/6-----1/3-1-3--3-5--3-5----------------------------------------|
g:-----------------------------------8-7------------------------------------|
d:----------------------------------------5---------------------------------|
a:--------------------------------------------------------------------------|
d:--------------------------------------------------------------------------|
                               then back to the chorus
e:---------------------------------------------------------------------------|
b:---------------------------------------------------------------------------|
g:--8-8-8-8-8-8-8------------------------------------------------------------|
d:--8-8-8-8-8-8-8-----10-10-------5-5-------8-7--7-7-------------------------|
a:--6-6-6-6-6-6-6-----10-10-ect---5-5-ect---8-7--7-7-------------------------|
d:--------------------10-10-------5-5-------8-7--7-7-------------------------|


e:--------------------------------------------------------------------------|
b:--------------------------------------------------------------------------|
g:--8-8-8-8-8-8-8---------------------------------------8--5----------------|
d:--8-8-8-8-8-8-8-----10-10-------5-5-------8-7----8-8--8--5----------------|
a:--6-6-6-6-6-6-6-----10-10-ect---5-5-ect---8-7----8-8--6--3----------------|
d:--------------------10-10-------5-5-------8-7----8-8----------------------|

e:--------------------------------------------------------------------------|
b:--------------------------------------------------------------------------|
g:--8-8--------10-10--------------------------------------------------------|
d:--8-8-ect----10-10----ect-------------------------------------------------|
a:--6-6--------10-10--------------------------------------------------------|
d:--------------------------------------------------------------------------|
                                outro
e:--------------------------------------------------------------------------|
b:--------------------------------------------------------------------------|
g:--------------------------------------------------------------------------|
d:-5-5-5-5-5--7-7-7-7-7-5-5-5-5-5--8-8-8-8-8--------------------------------|
a:-5-5-5-5-5--7-7-7-7-7-5-5-5-5-5--8-8-8-8-8-----do this over like 4 times--|
d:-5-5-5-5-5--7-7-7-7-7-5-5-5-5-5--8-8-8-8-8--------------------------------|


e:--------------------------------------------------------------------------|
b:--------------------------------------------------------------------------|
g:--------------------------------------------------------------------------|
d:5-5-5-5----8-8-8-8-7------------------------------------------------------|
a:5-5-5-5----8-8-8-8-7------------------------------------------------------|
d:5-5-5-5----8-8-8-8-7------------------------------------------------------|
Tap to rate this tab
 
# A B C D E F G H I J K L M N O P Q R S T U V W X Y Z