Song name
# A B C D E F G H I J K L M N O P Q R S T U V W X Y Z

Sick Puppies - Maybe tab

sick puppies
maybe
drop d
Tabbed by tyler s(tyler516)
x = partial mute

intro/verse
D------------------------------|
A-10xx10xx9xx9xx9--------------|
D------------------------------|
G------------------------------|
B------------------------------|
E------------------------------|

chorus (your going to just have to play along with the song to see how many times to 
each chord.)
D-10-3-5-3xx-5------------|
A-10-3-5-3xx-5------------|
D-10-3-5-3xx-5------------|
G-------------------------|
B-------------------------|
E-------------------------|

bridge
D-7-5-3-1---------|
A-7-5-3-1---------|
D-7-5-3-1---------|
G-----------------|
B-----------------|
E-----------------|

Acoustic part
D-10-3-5------------------|
A-10-3-5------------------|
D-10-3-5------------------|
G-------------------------|
B-------------------------|
E-------------------------|
final chorus
D-10-5-3-3xx-5----------|
A-10-5-3-3xx-5----------|
D-10-5-3-3xx-5----------|
G-----------------------|
B-----------------------|
E-----------------------|

Endin
D-10-------------|
A-10-------------|
D-10-------------|
G----------------|
B----------------|
E----------------|

This is a really good song one of my fav. by sick puppies
enjoy!
Tap to rate this tab
 
# A B C D E F G H I J K L M N O P Q R S T U V W X Y Z