Song name
# A B C D E F G H I J K L M N O P Q R S T U V W X Y Z

Sick Puppies - Maybe tab

verse acoustic
e----------------|
b----------------|
g-2------2-------|
d-5------4-------|
a-5------5-------|
d----------------|

verse lead
e--------------------------------|
b--------------------------------|
g--------------------------------|
d--------------------------------|
a-10----10-----9----9-----9--9---|
d---1212--1212--1212--1212-12-12-|

then to

e----------------|
b----------------|
g-7------9---7---|
d-9------11--9---|
a-10-----12--10--|
d----------------|

chorus
e----------------|
b----------------|
g-5--------------|
d-5--5---3---5---|
a-3--5---3---5---|
d----5---3---5---|

then play
e----------------|
b----------------|
g-2------4-------|
d-2------4-------|
a-0------2-------|
d----------------|

play verse again

bridge

e---------------------|
b---------------------|
g---------------------|
d-7--5--4--0--x2-3--5-|
a-7--5--4--0-----3--5-|
d-7--5--4--0-----3--5-|

after bridge verse
e--------------------|
b-1---3--1---3-------|
g-0---4--2---4-------|
d-2---5--3---5-------|
a-3---5--3---5-------|
d--------------------|

play chorus
wierd part after chorus
e-------------|
b-------------|
g-2--5--2--4--|
d-2--5--2--4--|
a-0--3--0--2--| hold out last chord
d-------------|

verse after final chorus
e----------------|
b-1------1-------|
g-0------0-------|
d-3------2-------|
a-3------3-------| hold out last chord
d----------------|
Tap to rate this tab
 
# A B C D E F G H I J K L M N O P Q R S T U V W X Y Z