Sick Puppies - Youre Going Down tab

This song isn't actually played in flat tuning but I went ahead and converted it to it.
Some of these chords are strummed but i'm only putting the tabs and you can figure out
the amount of strums for yourself cause' it's just easier that way. It's hard to read 
strum timing with tabs anyways.lol

(This part is for the bass, but I thought I'd make it real quick in case you wanted to
play along. It's kinda cool to play it in a power chord too.)
eb(-------------)
bb(-------------)
gb(-------------)
db(-------------)
ab(--5---4---2--)
Db(-------------)

(Chorus) X2
eb(-----------------------------------------------------)
bb(-----4-----4-----------------------------------------)
gb(--4-----4-----7-----7-----9-----9-----5-----5--------)
db(--4-----4-----7--7--7--7--9--9--9--9--5--5--5-4-5-4--)
ab(--2-----2-----5-----5-----7-----7-----3-----3--------)
Db(-----------------------------------------------------)

This next little thing he does in the verse is something that I'm not too sure on. I
think he uses a whammy bar and hits the 12th fret on the B string....but I'm not too
certain about it. If anybody knows, feel free to add a comment to it.

(Bridge)
eb(-------------------------------------------------------------------------|
bb(-------------------------------------------------------------------------|
gb(--------------------------44----44----77----77---------------------------|
db(--55XX-X55XX-X22XX-X22XX-X44XX-X44XX-X77XX-X77XX-------------------------|
ab(--55XX-X55XX-X22XX-X22XX-X22XX-X22XX-X55XX-X55XX-X55XX-X55XX-X22XX-X22XX-|
Db(--55XX-X55XX-X22XX-X22XX-X--XX-X--XX-X--XX-X--XX-X55XX-X55XX-X22XX-X22XX-|

(One strum for this part of the chorus)
eb(--------------)
bb(--------------)
gb(--4--7--9--5--)
db(--4--7--9--5--)
ab(--2--5--7--3--)
Db(--------------)

(Solo)
eb(--------------------------------------)
bb(--15-14-12---17-15-14--14bend-----19--)
gb(--------------------------------------)
db(--------------------------------------)
ab(--------------------------------------)
Db(--------------------------------------)

(Outro)X3
eb(--------------------------------------------)
bb(--------------------------------------------)
gb(----------------------------------------44--)
db(----------------------------------------44--)
ab(--5-4-2-4-5-5-4-2-4-5-5-4-2-4-5-5-4-2-4-22--)
Db(--------------------------------------------)
                                 PALM MUTE ..
Tap to rate this tab
 
# A B C D E F G H I J K L M N O P Q R S T U V W X Y Z