Sick Puppies - Deliverance tab

'Sup guys, so this is my first ever attempt at tabbing a song, so there's bound to be 
many mistakes, but hopefully this is the closest thing to the original.
I know there are a couple of things that are iffy (like the chorus), so anyone who can 
help fix any part is welcome--much appreciated!

So without further ado, enjoy :)


Intro:
-------------------------------------------------------|
------5555-----5555--55-----5555-----555-55b-----------|
-------------------------------------------------------|
--3333----3333-----3---0000-----0000----------x2-------|
--3333----3333-----3---0000-----0000-------------------|
--3333----3333-----3---0000-----0000-------------------|

Verse:
-------------------------------------------------------|
-------------------------------------------------------|
-------------------------------------------------------|
--3333--3333--33330000--0000--0000---------------------|
--3333--3333--33330000--0000--0000------------x2-------|
--3333--3333--33330000--0000--0000---------------------|

-------------------------------------------------------|
------5555-----5555--55-----5555-----555-55b-----------|
-------------------------------------------------------|
--3333----3333-----3---0000-----0000-------------------|
--3333----3333-----3---0000-----0000-------------------|
--3333----3333-----3---0000-----0000-------------------|

-------------------------------------------------------|
------5555-----5555--55-----5555-----555---------------|
-------------------------------------------------------|
--3333----3333-----3---0000-----0000-------------------|
--3333----3333-----3---0000-----0000-------------------|
--3333----3333-----3---0000-----0000-------------------|

-------------------------------------------------------|
-------------------------------------------------------|
--------5555--7777--9999-------------------------------|
--3333-------------------------------------------------|
--3333--3333--5555--7777-------------------------------|
--3333-------------------------------------------------|

Chorus:
--------------------------------------------------------|
--------------------------------------------------------|
--5555--7777--9999--12-12-12-12-------------------------|
--5555--7777--9999--12-12-12-12-10-10-10-10-10-10-10-10-|
--3333--5555--7777--10-10-10-10-10-10-10-10-10-10-10-10-|
--------------------------------10-10-10-10-10-10-10-10-|


------------------------------------------------------|
------------------------------------------------------|
------------------------------------------------------|
--5555----5-3-2-3-------------------------------------|
--5555---0--------5-(roughly)-------------------------|
--5555------------------------------------------------|

--------------------------------------------------------|
--------------------------------------------------------|
--5555--7777--9999--12-12-12-12-------------------------|
--5555--7777--9999--12-12-12-12-10-10-10-10-10-10-10-10-|
--3333--5555--7777--10-10-10-10-10-10-10-10-10-10-10-10-|
--------------------------------10-10-10-10-10-10-10-10-|

--------------------------------------------------------|
--------------------------------------------------------|
--------------------------------------------------------|
--9999-------3333---------------------------------------|
--9999-------3333---------------------------------------|
--9999-------3333---------------------------------------|

-------------------------------------------------------|
------5555-----5555--55-----5555-----555-55b-----------|
-------------------------------------------------------|
--3333----3333-----3---0000-----0000----------x2-------|
--3333----3333-----3---0000-----0000-------------------|
--3333----3333-----3---0000-----0000-------------------|

Verse:
-------------------------------------------------------|
-------------------------------------------------------|
-------------------------------------------------------|
--3333--3333--33330000--0000--0000---------------------|
--3333--3333--33330000--0000--0000------------x2-------|
--3333--3333--33330000--0000--0000---------------------|

-------------------------------------------------------|
------5555-----5555--55-----5555-----555-55b-----------|
-------------------------------------------------------|
--3333----3333-----3---0000-----0000-------------------|
--3333----3333-----3---0000-----0000-------------------|
--3333----3333-----3---0000-----0000-------------------|

-------------------------------------------------------|
------5555-----5555--55-----5555-----555---------------|
-------------------------------------------------------|
--3333----3333-----3---0000-----0000-------------------|
--3333----3333-----3---0000-----0000-------------------|
--3333----3333-----3---0000-----0000-------------------|

-------------------------------------------------------|
-------------------------------------------------------|
--------5555--7777--9999-------------------------------|
--3333-------------------------------------------------|
--3333--3333--5555--7777-------------------------------|
--3333-------------------------------------------------|

Chorus:
--------------------------------------------------------|
--------------------------------------------------------|
--5555--7777--9999--12-12-12-12-------------------------|
--5555--7777--9999--12-12-12-12-10-10-10-10-10-10-10-10-|
--3333--5555--7777--10-10-10-10-10-10-10-10-10-10-10-10-|
--------------------------------10-10-10-10-10-10-10-10-|

------------------------------------------------------|
------------------------------------------------------|
------------------------------------------------------|
--5555----5-3-2-3-------------------------------------|
--5555---0--------5-(roughly)-------------------------|
--5555------------------------------------------------|

--------------------------------------------------------|
--------------------------------------------------------|
--5555--7777--9999--12-12-12-12-------------------------|
--5555--7777--9999--12-12-12-12-10-10-10-10-10-10-10-10-|
--3333--5555--7777--10-10-10-10-10-10-10-10-10-10-10-10-|
--------------------------------10-10-10-10-10-10-10-10-|

--------------------------------------------------------|
--------------------------------------------------------|
--------------------------------------------------------|
--9999-------3333---------------------------------------|
--9999-------3333---------------------------------------|
--9999-------3333---------------------------------------|

Bridge:
--------------------------------------------------------|
--------------------------------------------------------|
--------------------------------------------------------|
--555-555--444-444-222-222---55------44-----------------|
--333-333--222-222-000-000---33------22-----------------|
--------------------------------xxxx----xxxx------------|

--------------------------------------------------------|
--------------------------------------------------------|
--------------------------------------------------------|
--555-555--444-444--33333333353535353-------------------|
--333-333--222-222--33333333353535353-------------------|
--------------------33333333353535353-------------------|
                    ....

-------------------------------------------------------|
------5555-----5555--55-----5555-----555-55b-----------|
-------------------------------------------------------|
--3333----3333-----3---0000-----0000-------------------|
--3333----3333-----3---0000-----0000-------------------|
--3333----3333-----3---0000-----0000-------------------|

-------------------------------------------------------|
------5555-----5555--55-----5555-----555---------------|
-------------------------------------------------------|
--3333----3333-----3---0000-----0000-------------------|
--3333----3333-----3---0000-----0000-------------------|
--3333----3333-----3---0000-----0000-------------------|

-------------------------------------------------------|
-------------------------------------------------------|
--------5555--7777--9999-------------------------------|
--3333-------------------------------------------------|
--3333--3333--5555--7777-------------------------------|
--3333-------------------------------------------------|

Chorus:
--------------------------|
--------------------------|
--------------------------|
--3333333355555555--------|
--3333333355555555--------|
--3333333355555555--------|
  ................

--------------------------------------------------------|
--------------------------------------------------------|
--5555--7777--9999--12-12-12-12-------------------------|
--5555--7777--9999--12-12-12-12-10-10-10-10-10-10-10-10-|
--3333--5555--7777--10-10-10-10-10-10-10-10-10-10-10-10-|
--------------------------------10-10-10-10-10-10-10-10-|

------------------------------------------------------|
------------------------------------------------------|
------------------------------------------------------|
--5555----5-3-2-3-------------------------------------|
--5555---0--------5-(roughly)-------------------------|
--5555------------------------------------------------|

--------------------------------------------------------|
--------------------------------------------------------|
--5555--7777--9999--12-12-12-12-------------------------|
--5555--7777--9999--12-12-12-12-10-10-10-10-10-10-10-10-|
--3333--5555--7777--10-10-10-10-10-10-10-10-10-10-10-10-|
--------------------------------10-10-10-10-10-10-10-10-|

--------------------------------------------------------|
--------------------------------------------------------|
--------------------------------------------------------|
--9999-------3333---------------------------------------|
--9999-------3333---------------------------------------|
--9999-------3333---------------------------------------|

-------------------------------------------------------|
------5555-----5555--55-----5555-----555-55b-----------|
-------------------------------------------------------|
--3333----3333-----3---0000-----0000-------------------|
--3333----3333-----3---0000-----0000-------------------|
--3333----3333-----3---0000-----0000-------------------|

-------------------------------------------------------|
------5555-----5555--55-----5555-----555---------------|
-------------------------------------------------------|
--3333----3333-----3---0000-----0000-------------------|
--3333----3333-----3---0000-----0000-------------------|
--3333----3333-----3---0000-----0000-------------------|

-------------------------------------------------------|
-------------------------------------------------------|
--------5555--7777--9999-------------------------------|
--3333-------------------------------------------------|
--3333--3333--5555--7777-------------------------------|
--3333-------------------------------------------------|

--------------------------------------------------------|
--------------------------------------------------------|
--5555--7777--9999--12-12-12-12-------------------------|
--5555--7777--9999--12-12-12-12-10--10--10--10--10------|
--3333--5555--7777--10-10-10-10-10--10--10--10--10------|
--------------------------------10--10--10--10--10------|

--------------------------------------------------------|
--------------------------------------------------------|
--5555--7777--9999--12-12-12-12-------------------------|
--5555--7777--9999--12-12-12-12-10-0-10-0-10-0-10-9-----|
--3333--5555--7777--10-10-10-10-10-0-10-0-10-0-10-9-----|
--------------------------------10-0-10-0-10-0-10-9-----|

--------------------------------------------------------|
--------------------------------------------------------|
--5555--7777--9999--12-12-12-12-------------------------|
--5555--7777--9999--12-12-12-12-10-10-10-10-10-10-10-10-|
--3333--5555--7777--10-10-10-10-10-10-10-10-10-10-10-10-|
--------------------------------10-10-10-10-10-10-10-10-|

--------------------------------------------------------|
--------------------------------------------------------|
--------------------------------------------------------|
--9999-------3333---------------------------------------|
--9999-------3333---------------------------------------|
--9999-------3333---------------------------------------|


THE END
*phew!*
Tap to rate this tab
 
# A B C D E F G H I J K L M N O P Q R S T U V W X Y Z