Song name
# A B C D E F G H I J K L M N O P Q R S T U V W X Y Z

Sick Puppies - Maybe Acoustic tab

----------------------------------------------------------------------------
	               Maybe (Acoustic) solo- Sick Puppies
----------------------------------------------------------------------------
Tabbed by: Madison
Email: Madsterxl1@yahoo.com

Tuning:

e|-------------------------------------------------------------------------|
B|-------------------------------------------------------------------------|
G|----------------------------------------------------------------6-6------|
D|----8-8-8--------8-8-8-------6---------------------6h8-8-8--6h8-----8----|
A|12----------11-----------10------/6--4h6-6-6-6p4-------------------------|
E|-------------------------------------------------------------------------|


e|-------------------------------------------------------------------------|
B|-------------------------------------------------------------------------|
G|6~-------------------------6-6--------6-6-------6-6----------------------|
D|----8----------------6h8-8-----6h8-8------6h8-8--------------------------|
A|-------6b-4------------------------------------------4h6-----------------|
E|-------------6-----------------------------------------------------------|

e|-------------------------------------------------------------------------|
B|-------------------------------------------------------------------------|
G|-------------------------------------------------------------------------|
D|8--6---------------6-6~--------------------------------------------------|
A|------8p6s4--4-6-8-------------------------------------------------------|
E|-------------------------------------------------------------------------|

This was done by ear. It's not 100%. Please leave a comment, suggestion, etc. Thanks :)

************************************

| /   slide up
| \   slide down
| h   hammer-on
| p   pull-off
| ~   vibrato
| +   harmonic
| x   Mute note
| b   Bend
| pb  Pre-bend
| br  Bend release
| pbr Pre-bend release
| brb Bend release bend

************************************
Tap to rate this tab
 
# A B C D E F G H I J K L M N O P Q R S T U V W X Y Z