Song name
# A B C D E F G H I J K L M N O P Q R S T U V W X Y Z

Sick Puppies - Cancer tab

Intro

D)-----------------------------------------------------------------------------|
A)-----------------------------------------------------------------------------|
F)-----------------------------------------------------------------------------|
C)---------------0-0-3-0-0-5-0-0-3-0-0-5-0-0-3--0-0-3-0-0-5-0-0-3-0-0-5-0-0-3--|
G)---------------0-0-3-0-0-5-0-0-3-0-0-5-0-0-3--0-0-3-0-0-5-0-0-3-0-0-5-0-0-3--|
C)---------------0-0-3-0-0-5-0-0-3-0-0-5-0-0-3--0-0-3-0-0-5-0-0-3-0-0-5-0-0-3--|

D)-----------------------------------------------------------------------------|
A)-----------------------------------------------------------------------------|
F)-----------------------------------------------------------------------------|
C)0-0-3-0-0-5-0-0-3-0-0-5-0-0-3--0-0-3-0-0-5-0-0-3-0-0-5-0-0-3-----------------|
G)0-0-3-0-0-5-0-0-3-0-0-5-0-0-3--0-0-3-0-0-5-0-0-3-0-0-5-0-0-3-----------------|
C)0-0-3-0-0-5-0-0-3-0-0-5-0-0-3--0-0-3-0-0-5-0-0-3-0-0-5-0-0-3-----------------|

Verse 1

D)---------------------------------------------------------------------------|
A)---------------------------------------------------------------------------|
F)---------------------------------------------------------------------------|
C)0-0-3-0-0-5-0-0-3-0-0-5-0-0-3--0-0-3-0-0-5-0-0-3-0-0-5-0-0-3---------------|
G)0-0-3-0-0-5-0-0-3-0-0-5-0-0-3--0-0-3-0-0-5-0-0-3-0-0-5-0-0-3---------------|
C)0-0-3-0-0-5-0-0-3-0-0-5-0-0-3--0-0-3-0-0-5-0-0-3-0-0-5-0-0-3---------------|

D)---------------------------------------------------------------------------|
A)---------------------------------------------------------------------------|
F)---------------------------------------------------------------------------|
C)0-0-3-0-0-5-0-0-3-0-0-5-0-0-3--0-0-3-0-0-5-0-0-3-0-0-5-0-0-3---------------|
G)0-0-3-0-0-5-0-0-3-0-0-5-0-0-3--0-0-3-0-0-5-0-0-3-0-0-5-0-0-3---------------|
C)0-0-3-0-0-5-0-0-3-0-0-5-0-0-3--0-0-3-0-0-5-0-0-3-0-0-5-0-0-3---------------|


Pre-Chorus

D)----------------------------------------------------------------------------|
A)----------------------------------------------------------------------------|
F)----------------------------------------------------------------------------|
C)0-3-0-0-0-0-0-0-0-0-0-3-0-0-0-0-0-0-0-0-0-3-0-0-0-0-0-0-0-0-0-3-0-0-0-0-0-0-|
G)0-3-0-0-0-0-0-0-0-0-0-3-0-0-0-0-0-0-0-0-0-3-0-0-0-0-0-0-0-0-0-3-0-0-0-0-0-0-|
C)0-3-0-0-0-0-0-0-0-0-0-3-0-0-0-0-0-0-0-0-0-3-0-0-0-0-0-0-0-0-0-3-0-0-0-0-0-0-|

D)----------------------------------------------------------------------------|
A)----------------------------------------------------------------------------|
F)----------------------------------------------------------------------------|
C)0-0-0-3-0-0-0-0-0-0-0-0-0-3-0-0-0-0-0-0-0-0-3-0-0-0-0-0-0-0-0-3-0-0-0-0-0-0-|
G)0-0-0-3-0-0-0-0-0-0-0-0-0-3-0-0-0-0-0-0-0-0-3-0-0-0-0-0-0-0-0-3-0-0-0-0-0-0-|
C)0-0-0-3-0-0-0-0-0-0-0-0-0-3-0-0-0-0-0-0-0-0-3-0-0-0-0-0-0-0-0-3-0-0-0-0-0-0-|

D)---------------------------------------------------------------------------|
A)---------------------------------------------------------------------------|
F)---------------------------------------------------------------------------|
C)0-0------------------------------------------------------------------------|
G)0-0------------------------------------------------------------------------|
C)0-0------------------------------------------------------------------------|

Chorus

D)----------------------------------------------------------------------------|
A)----------------------------------------------------------------------------|
F)----------------------------------------------------------------------------|
C)3-3-3-3-3-3-5-5-5-5-5-7-7-7-7-7-7-7-7-7-5-5-5-3-3-3-3-3-3-5-5-5-5-5-7-7-7-7-|
G)3-3-3-3-3-3-5-5-5-5-5-7-7-7-7-7-7-7-7-7-5-5-5-3-3-3-3-3-3-5-5-5-5-5-7-7-7-7-|
C)3-3-3-3-3-3-5-5-5-5-5-7-7-7-7-7-7-7-7-7-5-5-5-3-3-3-3-3-3-5-5-5-5-5-7-7-7-7-|

D)---------------------------------------------------------------------------|
A)---------------------------------------------------------------------------|
F)---------------------------------------------------------------------------|
C)7-7-7-7-7-7-7--------------------------------------------------------------|
G)7-7-7-7-7-7-7--------------------------------------------------------------|
C)7-7-7-7-7-7-7--------------------------------------------------------------|

Verse 2

D)---------------------------------------------------------------------------|
A)---------------------------------------------------------------------------|
F)---------------------------------------------------------------------------|
C)0-0-3-0-0-5-0-0-3-0-0-5-0-0-3--0-0-3-0-0-5-0-0-5-5-5-0---------------------|
G)0-0-3-0-0-5-0-0-3-0-0-5-0-0-3--0-0-3-0-0-5-0-0-5-5-5-0---------------------|
C)0-0-3-0-0-5-0-0-3-0-0-5-0-0-3--0-0-3-0-0-5-0-0-5-5-5-0---------------------|

D)---------------------------------------------------------------------------|
A)---------------------------------------------------------------------------|
F)---------------------------------------------------------------------------|
C)0-0-3-0-0-5-0-0-3-0-0-5-0-0-3--0-0-3-0-0-5-0-0-3-0-0-5-0-0-3---------------|
G)0-0-3-0-0-5-0-0-3-0-0-5-0-0-3--0-0-3-0-0-5-0-0-3-0-0-5-0-0-3---------------|
C)0-0-3-0-0-5-0-0-3-0-0-5-0-0-3--0-0-3-0-0-5-0-0-3-0-0-5-0-0-3---------------|

D)---------------------------------------------------------------------------|
A)---------------------------------------------------------------------------|
F)---------------------------------------------------------------------------|
C)0-0-3-0-0-5-0-0-3-0-0-5-0-0-3--0-0-3-0-0-5-0-0-3-0-0-5-0-0-3---------------|
G)0-0-3-0-0-5-0-0-3-0-0-5-0-0-3--0-0-3-0-0-5-0-0-3-0-0-5-0-0-3---------------|
C)0-0-3-0-0-5-0-0-3-0-0-5-0-0-3--0-0-3-0-0-5-0-0-3-0-0-5-0-0-3---------------|

Pre-Chorus


D)----------------------------------------------------------------------------|
A)----------------------------------------------------------------------------|
F)----------------------------------------------------------------------------|
C)0-3-0-0-0-0-0-0-0-0-0-3-0-0-0-0-0-0-0-0-0-3-0-0-0-0-0-0-0-0-0-3-0-0-0-0-0-0-|
G)0-3-0-0-0-0-0-0-0-0-0-3-0-0-0-0-0-0-0-0-0-3-0-0-0-0-0-0-0-0-0-3-0-0-0-0-0-0-|
C)0-3-0-0-0-0-0-0-0-0-0-3-0-0-0-0-0-0-0-0-0-3-0-0-0-0-0-0-0-0-0-3-0-0-0-0-0-0-|

D)---------------------------------------------------------------------------|
A)---------------------------------------------------------------------------|
F)---------------------------------------------------------------------------|
C)0-0------------------------------------------------------------------------|
G)0-0------------------------------------------------------------------------|
C)0-0------------------------------------------------------------------------|

Chorus

D)----------------------------------------------------------------------------|
A)----------------------------------------------------------------------------|
F)----------------------------------------------------------------------------|
C)3-3-3-3-3-3-5-5-5-5-5-7-7-7-7-7-7-7-7-7-5-5-5-3-3-3-3-3-3-5-5-5-5-5-7-7-7-7-|
G)3-3-3-3-3-3-5-5-5-5-5-7-7-7-7-7-7-7-7-7-5-5-5-3-3-3-3-3-3-5-5-5-5-5-7-7-7-7-|
C)3-3-3-3-3-3-5-5-5-5-5-7-7-7-7-7-7-7-7-7-5-5-5-3-3-3-3-3-3-5-5-5-5-5-7-7-7-7-|

D)---------------------------------------------------------------------------|
A)---------------------------------------------------------------------------|
F)---------------------------------------------------------------------------|
C)7-7-7-7-7-7-7--------------------------------------------------------------|
G)7-7-7-7-7-7-7--------------------------------------------------------------|
C)7-7-7-7-7-7-7--------------------------------------------------------------|

Bridge

D)6-5--------------------------------------6-6-6-6-6-8-6-6-6-6-6-6-6-8-6-6-6-|
A)---------------------------------------------------------------------------|
F)---------------------------------------------------------------------------|
C)----------3-3-3-3-3-5-5-5-5-5-7-7-7-7-7------------------------------------|
G)----------3-3-3-3-3-5-5-5-5-5-7-7-7-7-7------------------------------------|
C)----------3-3-3-3-3-5-5-5-5-5-7-7-7-7-7------------------------------------|

D)6-6-6-6-8-6-6-6-6-6-8-6-6-6-6-6-6-8-6-6-6-6-6-6-6-8-6-6-6-6-6-6-6-8-6-6-6-6-|
A)----------------------------------------------------------------------------|
F)----------------------------------------------------------------------------|
C)----------------------------------------------------------------------------|
G)----------------------------------------------------------------------------|
C)----------------------------------------------------------------------------|

D)-6-6-6-8-6-6-6-6-6-8-6-6-6-6-6-6-6-8---6-5---------------------------------|
A)---------------------------------------------------------------------------|
F)---------------------------------------------------------------------------|
C)---------------------------------------------------------------------------|
G)---------------------------------------------------------------------------|
C)---------------------------------------------------------------------------|

D)-----------------------------------------------------------------------------|
A)-----------------------------------------------------------------------------|
F)-----------------------------------------------------------------------------|
C)---------------0-0-3-0-0-5-0-0-3-0-0-5-0-0-3--0-0-3-0-0-5-0-0-3-0-0-5-0-0-3--|
G)---------------0-0-3-0-0-5-0-0-3-0-0-5-0-0-3--0-0-3-0-0-5-0-0-3-0-0-5-0-0-3--|
C)---------------0-0-3-0-0-5-0-0-3-0-0-5-0-0-3--0-0-3-0-0-5-0-0-3-0-0-5-0-0-3--|

D)-----------------------------------------------------------------------------|
A)-----------------------------------------------------------------------------|
F)-----------------------------------------------------------------------------|
C)0-0-3-0-0-5-0-0-3-0-0-5-0-0-3--0-0-3-0-0-5-0-0-3-0-0-5-0-0-3-----------------|
G)0-0-3-0-0-5-0-0-3-0-0-5-0-0-3--0-0-3-0-0-5-0-0-3-0-0-5-0-0-3-----------------|
C)0-0-3-0-0-5-0-0-3-0-0-5-0-0-3--0-0-3-0-0-5-0-0-3-0-0-5-0-0-3-----------------|

D)-----------------------------------------------------------------------------|
A)-----------------------------------------------------------------------------|
F)-----------------------------------------------------------------------------|
C)---------------0-0-3-0-0-5-0-0-3-0-0-5-0-0-3--0-0-3-0-0-5-0-0-3-0-0-5-0-0-3--|
G)---------------0-0-3-0-0-5-0-0-3-0-0-5-0-0-3--0-0-3-0-0-5-0-0-3-0-0-5-0-0-3--|
C)---------------0-0-3-0-0-5-0-0-3-0-0-5-0-0-3--0-0-3-0-0-5-0-0-3-0-0-5-0-0-3--|

D)-----------------------------------------------------------------------------|
A)-----------------------------------------------------------------------------|
F)-----------------------------------------------------------------------------|
C)0-0-3-0-0-5-0-0-3-0-0-5-0-0-3--0-0-3-0-0-5-0-0-3-0-0-5-0-0-3-----------------|
G)0-0-3-0-0-5-0-0-3-0-0-5-0-0-3--0-0-3-0-0-5-0-0-3-0-0-5-0-0-3-----------------|
C)0-0-3-0-0-5-0-0-3-0-0-5-0-0-3--0-0-3-0-0-5-0-0-3-0-0-5-0-0-3-----------------|


Chorus

D)----------------------------------------------------------------------------|
A)----------------------------------------------------------------------------|
F)----------------------------------------------------------------------------|
C)3-3-3-3-3-3-5-5-5-5-5-7-7-7-7-7-7-7-7-7-5-5-5-3-3-3-3-3-3-5-5-5-5-5-7-7-7-7-|
G)3-3-3-3-3-3-5-5-5-5-5-7-7-7-7-7-7-7-7-7-5-5-5-3-3-3-3-3-3-5-5-5-5-5-7-7-7-7-|
C)3-3-3-3-3-3-5-5-5-5-5-7-7-7-7-7-7-7-7-7-5-5-5-3-3-3-3-3-3-5-5-5-5-5-7-7-7-7-|

D)---------------------------------------------------------------------------|
A)---------------------------------------------------------------------------|
F)---------------------------------------------------------------------------|
C)7-7-7-7-7-7-7--------------------------------------------------------------|
G)7-7-7-7-7-7-7--------------------------------------------------------------|
C)7-7-7-7-7-7-7--------------------------------------------------------------|

Outro

D)6-5------------------------------------------------------------------------|
A)---------------------------------------------------------------------------|
F)---------------------------------------------------------------------------|
C)------3-3-3-3-3-5-5-5-5-5--------------------------------------------------|
G)------3-3-3-3-3-5-5-5-5-5--------------------------------------------------|
C)------3-3-3-3-3-5-5-5-5-5--------------------------------------------------|
Tap to rate this tab
 
# A B C D E F G H I J K L M N O P Q R S T U V W X Y Z