Song name
# A B C D E F G H I J K L M N O P Q R S T U V W X Y Z

Sick Puppies - Theres No Going Back tab

Drop C Tuning

Verses (Notes on C string are optional)
D-----------------------------------------------|
A-----------------------------------------------|
F-----------------------------------------------|
C--99999999-1111111111111111-88888888-99999999--|
G--99999999--9-9-9-9-9-9-9-9-99999999-99999999--|
C-(99999999--9-9-9-9-9-9-9-9-99999999-99999999)-|

D----------------------------------------------------------------------------------------------|
A-12----12----12----12----14----14----14----14----12----12----12----12----12----12----12121212-|
F----11----11----11----11----11----11----11----11----11----11----11----11----11----11-11111111-|
C----------------------------------------------------------------------------------------------|
G----------------------------------------------------------------------------------------------|
C----------------------------------------------------------------------------------------------|

Chorus
Rhythm
D-----------------------------------------------------|
A-----------------------------------------------------|
F-----------------------------------------------------|
C-666666666666-222222222222-999999999999-888888888888-|
G-666666666666-222222222222-999999999999-999999999999-|
C-666666666666-222222222222-999999999999-888888888888-|

Lead  (2nd time around, omit the 8h9 stuff.  I'm not really sure
if that's even the right notes but there's always constructive criticism.
Another note, other chorus' don't even have that part in.
Keep playing the High C 8 notes)
D-----------------------------------------------------------------------------------------|
A-----------------------------------------------------------------------------------------|
F--------------------------------------------------8888-----------------------------------|
C-9999999999999999-88888888-99999999-9999-11111111------11111111-88888888-----------------|
G-----------------------------------------------------------------------------9-9-----9-9-|
C-------------------------------------------------------------------------8h9-----8h9-----|

Post Chorus
D---------------------------------------------------|
A---------------------------------------------------|
F---------------------------------------------------|
C-999-111111-999-888-8h9-9-999-111111-999-888-8h9-9-|
G---------------------------------------------------|
C---------------------------------------------------|

D---------------------------------------------------|
A---------------------------------------------------|
F-------------------------------------999-888-8h9p8-|
C-999-111111-999-888-8h9-9-999-111111---------------|
G---------------------------------------------------|
C---------------------------------------------------|

Bridge
Guitar 1 Plays Verse
Guitar 2 (Kinda iffy)
D-------------------------------------------|
A----12----14----11----12----12----12----12-|
F-11----11----11----11----11----11----11----| repeat
C-------------------------------------------|
G-------------------------------------------|
C-------------------------------------------|
Tap to rate this tab
# A B C D E F G H I J K L M N O P Q R S T U V W X Y Z