Song name
# A B C D E F G H I J K L M N O P Q R S T U V W X Y Z

Sick Puppies - Theres No Going Back tab

A more mainstream sounding song from Sick Puppies' album Connect
I tabbed this by ear so it may not be 100% perfect but I think it sounds ok, there are 
other ways to play the song if you experiment with tunings.

Guitar 1 (Lead)
Verse 1 (Clean)
(0.00 - 0.40)
e--------------------------------------------------------------------------|
B--------------------------------------------------------------------------|
G------2-2-2-2-2-2-2-2-4-4-4-4-4-4-4-4-1-1-1-1-1-1-1-1-2-2-2-2-2-2-1-1-----|
D--------------------------------------------------------------------------|
A--------------------------------------------------------------------------|
D--------------------------------------------------------------------------|
(x3)
Then depending on the version of the song you are listening to either this plays, or see 
guitar 3 below.
e--------------------------------------------------------------------------|
B--------------------------------------------------------------------------|
G------2-2-2-2-2-2-2-2-4-4-4-4-4-4-4-4-7-7-7-7-7-7-7-7-6-6-6-6-X-X-X-X-----|
D--------------------------------------------------------------------------|
A--------------------------------------------------------------------------|
D--------------------------------------------------------------------------|

Repeat a second time but this time only play first part twice

Chorus 1 (Distorted)
(0.40 - 1.15)
Repeat the notes
e---------------------------------------------------|
B---------------------------------------------------|
G------2~~~~~~~~~~1~~~---4-4------4-4---------------|
D---------------------2------2-2------2-------------|
A---------------------------------------------------|
D---------------------------------------------------|

e---------------------------------------------------|
B---------------------------------------------------|
G------2~~~~~~~~~~1~~~~~~~~~~~~~--------------------|
D---------------------------------------------------|
A---------------------------------------------------|
D---------------------------------------------------|

e---------------------------------------------------|
B---------------------------------------------------|
G------2-2-2-2-4-4-4-4-2-2-2-2-1-1-1-1-1-1-1-2~-----|
D---------------------------------------------------|
A---------------------------------------------------|
D---------------------------------------------------|
(x3)

e---------------------------------------------------|
B---------------------------------------------------|
G------2-2-2-2-4-4-4-4-7-7-7-7-6-6-6-6b^(7) r(6)----|
D---------------------------------------------------|
A---------------------------------------------------|
D---------------------------------------------------|

Verse 2 (Clean)
(1.15 - 1.39)
e--------------------------------------------------------------------------|
B--------------------------------------------------------------------------|
G------2-2-2-2-2-2-2-2-4-4-4-4-4-4-4-4-1-1-1-1-1-1-1-1-2-2-2-2-2-2-1-1-----|
D--------------------------------------------------------------------------|
A--------------------------------------------------------------------------|
D--------------------------------------------------------------------------|
(x3)

e--------------------------------------------------------------------------|
B--------------------------------------------------------------------------|
G------2-2-2-2-2-2-2-2-4-4-4-4-4-4-4-4-7-7-7-7-7-7-7-7-6-6-6-6-X-X-X-X-----|
D--------------------------------------------------------------------------|
A--------------------------------------------------------------------------|
D--------------------------------------------------------------------------|

Chorus 2 (Distorted)
(1.39 - 2.14)
Repeat the notes
e-------------------------------------------------|
B-------------------------------------------------|
G------2~~~~~~~~~~1~~~~---------------------------|
D-------------------------------------------------|
A-------------------------------------------------|
D-----------------------------6-6-6-6-6-6-6-6-----|

e-------------------------------------------------|
B-------------------------------------------------|
G------2~~~~~~~~~~1~~~~~~~~~~~~~------------------|
D-------------------------------------------------|
A-------------------------------------------------|
D-------------------------------------------------|

e-------------------------------------------------|
B-------------------------------------------------|
G------2-2-2-2-4-4-4-4-2-2-2-2-1-1-1-1-1-1-1-2~---|
D-------------------------------------------------|
A-------------------------------------------------|
D-------------------------------------------------|
(x3)

e-------------------------------------------------|
B-------------------------------------------------|
G------2-2-2-2-4-4-4-4-7-7-7-7-6-6-6-6b^(7) r(6)--|
D-------------------------------------------------|
A-------------------------------------------------|
D-------------------------------------------------|

Bridge (Clean)
(2.14 - 2.37)
e-------------------------------------------------------------------------|
B-------------------------------------------------------------------------|
G-------------------------------------------------------------------------|
D--2-2-2-2-2-2-2-2--0-0-0-0-0-0-0-0---------------------0-0-0-0-0-0-0-0---|
A-0-0-0-0-0-0-0-0--2-2-2-2-2-2-2-2---0-0-0-0-0-0-0-0----------------------|
D-----------------------------------4-4-4-4-4-4-4-4-4--0-0-0-0-0-0-0-0----|

e-------------------------------------------------------------------------|
B-------------------------------------------------------------------------|
G-------------------------------------------------------------------------|
D--2-2-2-2-2-2-2-2--0-0-0-0-0-0-0-0---------------------0-0-0-0-----------|
A-0-0-0-0-0-0-0-0--2-2-2-2-2-2-2-2---0-0-0-0-0-0-0-0----------------------|
D-----------------------------------4-4-4-4-4-4-4-4-4--0-0-0-0-0----------|

Chorus 3 (Distorted)
(2.37 - 3.22)
Repeat the notes
e---------------------------------------------|
B---------------------------------------------|
G------2~~~~~~~~~~1~~~~~~~~~~~~---------------|
D---------------------------------------------|
A---------------------------------------------|
D-------------------------------5b^-----------|

e---------------------------------------------|
B---------------------------------------------|
G------2~~~~~~~~~~1~~~~~~~~~~~~~--------------|
D---------------------------------------------|
A---------------------------------------------|
D---------------------------------------------|

e---------------------------------------------|
B---------------------------------------------|
G---2-2-2-2-4-4-4-4-2-2-2-2-1-1-1-1-1-1-1-2~--|
D---------------------------------------------|
A---------------------------------------------|
D---------------------------------------------|
(x3)

e---------------------------------------------|
B---------------------------------------------|
G------2-2-2-2-4-4-4-4-7-7-7-7-6-6-6-6~-------|
D---------------------------------------------|
A---------------------------------------------|
D---------------------------------------------|



Guitar 2 (Rhythm)
Verse 1 (Clean)
(0.00 - 0.40)
e--------------------------------------------------------------------------|
B--------------------------------------------------------------------------|
G----2-2-2-2-2-2-2-2-4-4-4-4-4-4-4-4-1-1-1-1-1-1-1-1-2-2-2-2-2-2-2-2-------|
D----2-2-2-2-2-2-2-2-2-2-2-2-2-2-2-2-2-2-2-2-2-2-2-2-2-2-2-2-2-2-2-2-------|
A----0-0-0-0-0-0-0-0-0-0-0-0-0-0-0-0-0-0-0-0-0-0-0-0-0-0-0-0-0-0-0-0-------|
D--------------------------------------------------------------------------|
(x3)

e--------------------------------------------------------------------------|
B--------------------------------------3-3-3-3-3-3-3-3-2-2-2-2-------------|
G------2-2-2-2-2-2-2-2-4-4-4-4-4-4-4-4-2-2-2-2-2-2-2-2-2-2-2-2-X-X-X-X-----|
D------2-2-2-2-2-2-2-2-2-2-2-2-2-2-2-2-2-2-2-2-2-2-2-2-2-2-2-2-X-X-X-X-----|
A------0-0-0-0-0-0-0-0-0-0-0-0-0-0-0-0-0-0-0-0-0-0-0-0-0-0-0-0-X-X-X-X-----|
D--------------------------------------------------------------------------|

Repeat a second time but this time only play first part twice

Chorus 1 (Distorted)
(0.40 - 1.15)
e---------------------------------------------------------------------------|
B---------------------------------------------------------------------------|
G-------------------------------------------------------------4-4-----4-4---|
D--4-4-4-4-4-4-4-4-0-0-0-0-0-0-0-0-7-7-7-7-7-7-7-7-6-6-6-6--2-----2-2-----2-|
A--4-4-4-4-4-4-4-4-0-0-0-0-0-0-0-0-7-7-7-7-7-7-7-7-6-6-6-6------------------|
D--4-4-4-4-4-4-4-4-0-0-0-0-0-0-0-0-7-7-7-7-7-7-7-7-6-6-6-6------------------|

e---------------------------------------------------------------------------|
B---------------------------------------------------------------------------|
G---------------------------------------------------------------------------|
D--4-4-4-4-4-4-4-4-0-0-0-0-0-0-0-0-7-7-7-7-7-7-7-7-6-6-6-6-6-6-6-6----------|
A--4-4-4-4-4-4-4-4-0-0-0-0-0-0-0-0-7-7-7-7-7-7-7-7-6-6-6-6-6-6-6-6----------|
D--4-4-4-4-4-4-4-4-0-0-0-0-0-0-0-0-7-7-7-7-7-7-7-7-6-6-6-6-6-6-6-6----------|

e---------------------------------------------------------------------------|
B---------------------------------------------------------------------------|
G---------------------------------------------------------------------------|
D--7-7-7-7-7-7-7-7-4-4-4-4-4-4-4-4-0-0-0-0-0-0-0-0-7-7-7-7-7-7-7-7----------|
A--7-7-7-7-7-7-7-7-4-4-4-4-4-4-4-4-0-0-0-0-0-0-0-0-7-7-7-7-7-7-7-7----------|
D--7-7-7-7-7-7-7-7-4-4-4-4-4-4-4-4-0-0-0-0-0-0-0-0-7-7-7-7-7-7-7-7----------|

Verse 2 (Clean)
(1.15 - 1.39)
e---------------------------------------------------------------------------|
B---------------------------------------------------------------------------|
G--2-2-2-2-2-2-2-2-4-4-4-4-4-4-4-4-1-1-1-1-1-1-1-1-2-2-2-2-2-2-2-2----------|
D--2-2-2-2-2-2-2-2-2-2-2-2-2-2-2-2-2-2-2-2-2-2-2-2-2-2-2-2-2-2-2-2----------|
A--0-0-0-0-0-0-0-0-0-0-0-0-0-0-0-0-0-0-0-0-0-0-0-0-0-0-0-0-0-0-0-0----------|
D---------------------------------------------------------------------------|
(x3)

e--------------------------------------------------------------------------|
B--------------------------------------3-3-3-3-3-3-3-3-2-2-2-2-------------|
G------2-2-2-2-2-2-2-2-4-4-4-4-4-4-4-4-2-2-2-2-2-2-2-2-2-2-2-2-X-X-X-X-----|
D------2-2-2-2-2-2-2-2-2-2-2-2-2-2-2-2-2-2-2-2-2-2-2-2-2-2-2-2-X-X-X-X-----|
A------0-0-0-0-0-0-0-0-0-0-0-0-0-0-0-0-0-0-0-0-0-0-0-0-0-0-0-0-X-X-X-X-----|
D--------------------------------------------------------------------------|

Chorus 2 (Distorted)
(1.39 - 2.14)
e---------------------------------------------------------------------------|
B---------------------------------------------------------------------------|
G---------------------------------------------------------------------------|
D--4-4-4-4-4-4-4-4-0-0-0-0-0-0-0-0-7-7-7-7-7-7-7-7-6-6-6-6------------------|
A--4-4-4-4-4-4-4-4-0-0-0-0-0-0-0-0-7-7-7-7-7-7-7-7-6-6-6-6------------------|
D--4-4-4-4-4-4-4-4-0-0-0-0-0-0-0-0-7-7-7-7-7-7-7-7-6-6-6-6-6-6-6-6----------|

e---------------------------------------------------------------------------|
B---------------------------------------------------------------------------|
G---------------------------------------------------------------------------|
D--4-4-4-4-4-4-4-4-0-0-0-0-0-0-0-0-7-7-7-7-7-7-7-7-6-6-6-6-6-6-6-6----------|
A--4-4-4-4-4-4-4-4-0-0-0-0-0-0-0-0-7-7-7-7-7-7-7-7-6-6-6-6-6-6-6-6----------|
D--4-4-4-4-4-4-4-4-0-0-0-0-0-0-0-0-7-7-7-7-7-7-7-7-6-6-6-6-6-6-6-6----------|

e---------------------------------------------------------------------------|
B---------------------------------------------------------------------------|
G---------------------------------------------------------------------------|
D--7-7-7-7-7-7-7-7-4-4-4-4-4-4-4-4-0-0-0-0-0-0-0-0-7-7-7-7-7-7-7-7----------|
A--7-7-7-7-7-7-7-7-4-4-4-4-4-4-4-4-0-0-0-0-0-0-0-0-7-7-7-7-7-7-7-7----------|
D--7-7-7-7-7-7-7-7-4-4-4-4-4-4-4-4-0-0-0-0-0-0-0-0-7-7-7-7-7-7-7-7----------|

Bridge (Clean)
(2.14 - 2.37)
Play the bass notes to lead guitar
e---------------------------------------------------------------------------|
B---------------------------------------------------------------------------|
G---------------------------------------------------------------------------|
D---------------------------------------------------------------------------|
A---0-0-0-0-0-0-0-0-2-2-2-2-2-2-2-2-----------------------------------------|
D-----------------------------------4-4-4-4-4-4-4-4-0-0-0-0-0-0-0-0---------|
(X2)

Chorus 3 (Distorted)
(2.37 - 3.22)
e---------------------------------------------------------------------------|
B---------------------------------------------------------------------------|
G---------------------------------------------------------------------------|
D--4-4-4-4-4-4-4-4-0-0-0-0-0-0-0-0-7-7-7-7-7-7-7-6-6-6-6-6-6----------------|
A--4-4-4-4-4-4-4-4-0-0-0-0-0-0-0-0-7-7-7-7-7-7-7-6-6-6-6-6-6----------------|
D--4-4-4-4-4-4-4-4-0-0-0-0-0-0-0-0-7-7-7-7-7-7-7-6-6-6-6-6-6-5b^------------|

e---------------------------------------------------------------------------|
B---------------------------------------------------------------------------|
G---------------------------------------------------------------------------|
D--4-4-4-4-4-4-4-4-0-0-0-0-0-0-0-0-7-7-7-7-7-7-7-6-6-6-6-6-6-6-6------------|
A--4-4-4-4-4-4-4-4-0-0-0-0-0-0-0-0-7-7-7-7-7-7-7-6-6-6-6-6-6-6-6------------|
D--4-4-4-4-4-4-4-4-0-0-0-0-0-0-0-0-7-7-7-7-7-7-7-6-6-6-6-6-6-6-6------------|

e---------------------------------------------------------------------------|
B---------------------------------------------------------------------------|
G---------------------------------------------------------------------------|
D--7-7-7-7-7-7-7-7-4-4-4-4-4-4-4-4-0-0-0-0-0-0-0-0-7-7-7-7-7-7-7-7----------|
A--7-7-7-7-7-7-7-7-4-4-4-4-4-4-4-4-0-0-0-0-0-0-0-0-7-7-7-7-7-7-7-7----------|
D--7-7-7-7-7-7-7-7-4-4-4-4-4-4-4-4-0-0-0-0-0-0-0-0-7-7-7-7-7-7-7-7----------|


Guitar 3
Depending on the version of the song you are listening to there is another little melody 
playing in the verse that goes like this...

e--------------------------------------------------------------------------|
B----10--10--10--10--12--12--12--12--10--10--10--10--10--10--10--10--------|
G------13--13--13--13--13--13--13--13--13--13--13--13--13--13--13--13------|
D--------------------------------------------------------------------------|
A--------------------------------------------------------------------------|
D--------------------------------------------------------------------------|


Thanks for checking out the tab!
If you have any corrections or comments then feel free to let me know :)
Enjoy!
Tap to rate this tab
 
# A B C D E F G H I J K L M N O P Q R S T U V W X Y Z