Song name
# A B C D E F G H I J K L M N O P Q R S T U V W X Y Z

Sick Puppies - The Trick The Devil Did tab

I figured out most of the song. Im putting this up just as a foundation 
for someone else to tab out the song properly as i cant be bothered figuring 
out the details.


Tuning: Drop C

Intro/verse Riff:

D|----------------------------------------------|
A|-----1~----------3~---------------------------|
F|---2----2-0--------------------4--4--4--4-----|
C|---------------3-----3-------5--5--5--5-------|
G|--0-0----0------------------------------------|     Repeat as much as needed
C|--------------3-3---3-3-----5-5--5--5---------|        


                   OR 

D|------------------------------------|
A|-----1~------3~---------------------|
F|---2-----------------4--4--4--4-----|
C|-----------3-------5--5--5--5-------|
G|--0-0-------------------------------|     Repeat as much as needed
C|----------3-3-----5-5--5--5---------|        

(I think Shim plays it this way in the recording and the bass is doing the rhythm)


Chorus:

D|------------------------------------------|
A|------------------------------------------|
F|-----------555------------5---------------|
C|--3--------555---7--------5--x16---3------|
G|--3--x13---333---7--x16---3--------3--x16-|     
C|--3--------------7-----------------3------|

Post chorus riff:

D|-----------------------------------|
A|-----------------------------------|
F|--55-x--99-9-----------------------|     (i dont think octave notes are actually played in the song, 
C|--xx-x--xx-x-----5p0-5-7-77--------|      i think its just single notes on the F string but layered 
G|--33-x--77-7-----------------------|      heaps in the recording)
C|-----------------------------------| x2

Intro/verse riff:

D|------------------------------------|
A|-----1~------3~---------------------|
F|---2-----------------4--4--4--4-----|
C|-----------3-------5--5--5--5-------|
G|--0-0-------------------------------|     Repeat as much as needed
C|----------3-3-----5-5--5--5---------|        


Chorus 2:

D|-------------------------------------------------------------|
A|-------------------------------------------------------------|
F|-----------555------------------555----------5---------------|
C|--3--------555---7-------3------555--7-------5--x16---3------|
G|--3--x13---333---7--x16--3-x13--333--7--x16--3--------3--x16-|     
C|--3--------------7-------3-----------7----------------3------|

Post chorus riff:

D|-----------------------------------|
A|-----------------------------------|
F|--55-x--99-9-----------------------|
C|--xx-x--xx-x-----5p0-5-7-77--------|          x2
G|--33-x--77-7-----------------------| 
C|-----------------------------------|

Bridge:

D|------------------------------------|
A|------------------------------------|
F|--------------------5---------------|
C|--3---------7-------5--x16---3------|
G|--3--x16----7--x16--3--------3--x16-|     
C|--3---------7----------------3------|



Chorus:

D|------------------------------------------|
A|------------------------------------------|
F|-----------555------------5---------------|
C|--3--------555---7--------5--x16---3------|
G|--3--x13---333---7--x16---3--------3--x16-|     
C|--3--------------7-----------------3------|


Post chorus riff:

D|-----------------------------------|
A|-----------------------------------|
F|--55-x--99-9-----------------------|
C|--xx-x--xx-x-----5p0-5-7-77--------|          x4
G|--33-x--77-7-----------------------| 
C|-----------------------------------|
Tap to rate this tab
 
# A B C D E F G H I J K L M N O P Q R S T U V W X Y Z