Song name
# A B C D E F G H I J K L M N O P Q R S T U V W X Y Z

Sick Puppies - All The Same Acoustic tab

Tuning: Drop D, 1/2 step down

C Em Am F sounds great, but i saw them play, and they weren't playing those easy 
so yeah.. here it is, how they really play. you'll have to figure out the stroke yourselves, 
not that hard and it's repetitive. Most of the tab's probably right.


Intro

e|---------|
B|---------|
G|---11----|
D|----X----|
A|----9----|
D|----0----|

Verse (I don't mind where you come from....)

e|----------------------------|
B|----------------------------|
G|---11----11----11------7----|
D|----X-----X----11(12)--5----|
A|----9-----9-----9------5----|
D|----0----11-----9------5----|


Bridge (I don't mind, I don't care, as long as you are here)


e|-------------------|
B|-------------------|
G|----7----7----7----|
D|----5----0----5----|
A|----5----0----5----|
D|----5----0----5----| X 2


e|------------------------|
B|------------------------|
G|----7----7----7----7----|
D|----5----0----0----0----|
A|----5----0----0----0----|
D|----5----0----0----0----| let it ring


Chorus (go ahead tell me you'll leave again)


e|---------------------------------------------------------|
B|---------------------------------------------------------|
G|---11-11-11-11----X-X-7-7---11-9-12-11----9-X--X--X------|
D|---12-11--9--9----9-7-5-5----X-X--X--X----7-9-11-11------|
A|----9--9--9--9----5-5-5-5----9-7-10--9----7-7--7--7------|
D|----9--9--9--9----5-5-5-5----0-0--0--0----7-7--7--7------|


Solo

e|-------------------------------------------------------------------------------------------------------|
B|-------------------------------------------------------------------------------------------------------|
G|-12-11-9---X---9--/11--/12-/11-/9----X---X---X--X--12-11-9----6--7--7--7--7---7-7-7-7-7-7-7-7-7-7-7-7--|
D|----------12---X---X----------------11-/12--/7----------------X--5--5--5--5---5-0-0-5-0-0-5-0-0-5-0-0--|
A|-----------9---9---9~----------------7---7---7----------------4--X--5--7--5---5-0-0-5-0-0-5-0-0-5-0-0--|
D|-----------0---0---0~----------------7---7---7----------------5--5--5--5--5---5-0-0-5-0-0-5-0-0-5-0-0--|

Bridge 2 (Wrong or Right, Black or White )

e|----------------------------------------------|
B|----------------------------------------------|
G|---11----9----7----7-7-7-7-7-7-7-7-7-7-7-7----|
D|----X----7----5----5-0-0-5-0-0-5-0-0-5-0-0----|
A|----9----7----5----5-0-0-5-0-0-5-0-0-5-0-0----|
D|----0----7----5----5-0-0-5-0-0-5-0-0-5-0-0----|


Ending

e|----------------------------|
B|----------------------------|
G|---11----11----11------7~---|
D|----X-----X----11(12)--5~---|
A|----9-----9-----9------5~---|
D|----0----11-----9------5~---|


tabbed by pac614
Tap to rate this tab
# A B C D E F G H I J K L M N O P Q R S T U V W X Y Z