Song name
# A B C D E F G H I J K L M N O P Q R S T U V W X Y Z

Sick Puppies - Too Many Words tab

-------------------------------------------------------------------------------
			     Too Many Words - Sick Puppies
-------------------------------------------------------------------------------
Tabbed by: Ben
Email: juvey17@hotmail.com

I could not find this tab any where on the internet, so I thought I would give a shot.
hopefully inspire a more distinguished guitar player to finish it out.  I have only the
and that is not even complete, just something that I think is close, that maybe could 
someone in to tabbing the whole thing, correctly.  Have a good day and I hope to be
some full song tablature for this.

Tuning: 1/2 step down

eb|----------------------------------------------------------------------|
Bb|-----1-----1------1-----1------0-----0-----0-----0h1h3--------------o-|
Gb|----0-0---0-0----0-0---0-0----0-0---0-0---0-0---0-----0---------------|
Db|--2-----2-----0------0------2------2-----2-----2----------------------|
Ab|--3-----3-----2------2------0------0-----0-----0--------------------o-|
Eb|----------------------------------------------------------------------|

This is just the intro and the verse of the song. This is also my first tab so I know it
100% but at least it is something to get someone else started because this tab is
A Good guitar song and a Great Band.

| /  slide up
| \  slide down
| h  hammer-on
| p  pull-off
| ~  vibrato
| +  harmonic
| x  Mute note
===============================================================================
Tap to rate this tab
 
# A B C D E F G H I J K L M N O P Q R S T U V W X Y Z