Song name
# A B C D E F G H I J K L M N O P Q R S T U V W X Y Z

Sicko - Bad Year tab

http://www.sicko.com/


-------------------------------------------------------------------------------
			     Bad Year - Sicko
-------------------------------------------------------------------------------
Tabbed by: Bryan
Email:

Tuning: 1/2 down

I think I have the intro right. The verse I'm having trouble with don't know what the
is after he hits that D chord a couple times. Didn't get the riff thats playing behind the
The song just repeats itself, with the bass just playing in the bridge.  Open to 
Please post comments.

Intro Chords
e|---2-----0-----2-------------------3--|
B|---3-----3-----3-------------------3--|
G|---2-----2-----4-----2-------------0--|
D|---0-----0-----4-----2---5--4--2---0--|
A|---0-----0-----2-----0---0--0--0------|
E|-----------------------------------3--|
Verse Chords
e|--------3-----2------------------------------------------------------------------|
B|--2-----3-----3------------------------------------------------------------------|
G|--2-----0-----2------------------------------------------------------------------|
D|--2-----0-----0------------------------------------------------------------------|
A|--0-----------0------?----?------------------------------------------------------|
E|--------3------------------------------------------------------------------------|

************************************

| /   slide up
| \   slide down
| h   hammer-on
| p   pull-off
| ~   vibrato
| +   harmonic
| x   Mute note
| b   Bend
| pb  Pre-bend
| br  Bend release
| pbr Pre-bend release
| brb Bend release bend

************************************
Tap to rate this tab
 
# A B C D E F G H I J K L M N O P Q R S T U V W X Y Z