Song name
# A B C D E F G H I J K L M N O P Q R S T U V W X Y Z

Sicmonic - Hypnotic tab

[SIC]Monic                                     http://www.sicmonic.com/
Hypnotic                                       http://www.myspace.com/sicmonic
Tabbed by U B the band
Tuning B F# B E G# C#

Legend
~-tremolo pick                   pm-palm mute                /-slide up
\-slide down                     v-vibrato                   PH-pinch harmonic

Intro: Guitar 2 (Distorted) RAY: PLAY 2 TIMES
C#|---------------------------------------------------------------------------|
G#|--15~~~~~~~~~~~~~~~~16~~~~~~~~~~~~~~~~14~~~~~~~~~~~~~~~~~~~~~~~~~~~~~~~~~--|
 E|--19~~~~~~~~~~~~~~~~20~~~~~~~~~~~~~~~~18~~~~~~~~~~~~~~~~~~~~~~~~~~~~~~~~~--|
 B|---------------------------------------------------------------------------|
F#|---------------------------------------------------------------------------|
 B|---------------------------------------------------------------------------|

Intro: Guitars 1 & 2: (Distorted with Fuzz) ROBERT
C#|---------------------------------------------------------------------------|
G#|---------------------------------------------------------------------------|
 E|------------------------15-15-15-14---------------------------12-14-14-14--|
 B|--0--0-------------------x--x--x--x---0--0---------------------x--x--x--x--|
F#|--0--0------------------13-13-13-12---0--0--------------------10-12-12-12--|
 B|--0--0--------------------------------0--0---------------------------------|
     pmpm                                pmpm                                 |
                                                                              |
Intro: Guitar 2 (Distorted) RAY                                               |
C#|--17~~~~~~~~~~~~~~~~18~~~~~~~~~~~~~~~~16~~~~~~~~~~~~~~~~~~~~~~~~~~~~~~~~~--|
G#|--22~~~~~~~~~~~~~~~~23~~~~~~~~~~~~~~~~21~~~~~~~~~~~~~~~~~~~~~~~~~~~~~~~~~--|
 E|---------------------------------------------------------------------------|
 B|---------------------------------------------------------------------------|
F#|---------------------------------------------------------------------------|
 B|---------------------------------------------------------------------------|

Intro: Guitars 1 & 2: (Distorted with Fuzz) ROBERT
C#|---------------------------------------------------------------------------|
G#|---------------------------------------------------------------------------|
 E|------------------------10-10-10--9---------------------------6--6--7------|
 B|--0--0-------------------x--x--x--x---0--0--------------------x--x--x------|
F#|--0--0-------------------8--8--8--7---0--0--------------------4--4--5------|
 B|--0--0--------------------------------0--0---------------------------------|
     pmpm                                pmpm                                 |
                                                                              |
Intro: Guitar 2 (Distorted) RAY                                               |
C#|--17~~~~~~~~~~~~~~~~18~~~~~~~~~~~~~~~~16~~~~~~~~~~~~~~~~~~~~~~~~~~~~~~~~~--|
G#|--22~~~~~~~~~~~~~~~~23~~~~~~~~~~~~~~~~21~~~~~~~~~~~~~~~~~~~~~~~~~~~~~~~~~--|
 E|---------------------------------------------------------------------------|
 B|---------------------------------------------------------------------------|
F#|---------------------------------------------------------------------------|
 B|---------------------------------------------------------------------------|

Intro: Guitars 1 & 2 (Distorted)
C#|---------------------------------------------------------------------------|
G#|---------------------------------------------------------------------------|
 E|--------15-15-15-14--------12-14-14-14--------10-10-10--9--------6--6--7---|
 B|--0--0---x--x--x--x--0--0---x--x--x--x--0--0---x--x--x--x--0--0--x--x--x---|
F#|--0--0--13-13-13-12--0--0--10-12-12-12--0--0---8--8--8--7--0--0--4--4--5---|
 B|--0--0---------------0--0---------------0--0---------------0--0------------|
     pmpm               pmpm               pmpm               pmpm

Verse 1: Guitar 1 (Clean)
C#|----------0-----0---------------------------------0------------------------|
G#|------3-----3------2----------------------3---3-----2----------------------|
 E|----2---2-----2------3------------------2-------2--------------------------|
 B|--0-----------------------------------0------------------------------------|
F#|---------------------------------------------------------------------------|
 B|---------------------------------------------------------------------------|
                                                                              |
Verse 1: Guitar 2 (Distorted)                                                 |
C#|---------------------------------------------------------------------------|
G#|---------------------------------------------------------------------------|
 E|---------------------------------------------------------------------------|
 B|--0------------------------------------------------------------------------|
F#|--0------------------------------------------------------------------------|
 B|--0------------------------------------------------------------------------|

Verse 1: Guitar 1 (Clean)
C#|----------0-----0---------------------------0--5----6---4------------------|
G#|------3-----3------2----------------------3--------------------------------|
 E|----2---2-----2------3------------------2----------------------------------|
 B|--0-----------------------------------0------------------------------------|
F#|---------------------------------------------------------------------------|
 B|---------------------------------------------------------------------------|
                                                                              |
Verse 1: Guitar 2 (Distorted)                                                 |
C#|---------------------------------------------------------------------------|
G#|---------------------------------------------------------------------------|
 E|--7----------------------------7-/9--9--------------10----/12--------------|
 B|---------------------------------------------------------------------------|
F#|---------------------------------------------------------------------------|
 B|---------------------------------------------------------------------------|

Verse 1: Guitar 1 (Clean)
C#|----------0-----0---------------------------0---------0--------------------|
G#|------3-----3------2----------------------3---------3---3------------------|
 E|----2---2-----2------3------------------2---------2-------2----------------|
 B|--0-----------------------------------0------------------------------------|
F#|---------------------------------------------------------------------------|
 B|---------------------------------------------------------------------------|
                                                                              |
Verse 1: Guitar 2 (Distorted)                                                 |
C#|--------------------------8------------------------------------------------|
G#|----------11---10-10--------11-10------------------------------------------|
 E|--7-------------------------------10------------9-----------------10--9----|
 B|---------------------------------------------------------------------------|
F#|---------------------------------------------------------------------------|
 B|---------------------------------------------------------------------------|

Verse 1: Guitar 1 (Clean)
C#|----------0-----0---------------------------0--5---------------------------|
G#|------3-----3------2----------------------3--------------------------------|
 E|----2---2-----2------3------------------2----------------------------------|
 B|--0-----------------------------------0------------------------------------|
F#|---------------------------------------------------------------------------|
 B|---------------------------------------------------------------------------|
                                                                              |
Verse 1: Guitar 2 (Distorted)                                                 |
C#|---------------------------------------------------------------------------|
G#|-----------------------------------------------------------------13--\-----|
 E|--7----------------------------9-/10-10-------------12----/14--------------|
 B|---------------------------------------------------------------------------|
F#|---------------------------------------------------------------------------|
 B|---------------------------------------------------------------------------|

Chorus: Guitars 1 & 2 (Distorted)
C#|---------------------------------------------------------------------------|
G#|---------------------------------------------------------------------------|
 E|--------15-15-15-14--------12-14-14-14--------10-10-10--9--------6--6------|
 B|--0--0---x--x--x--x--0--0---x--x--x--x--0--0---x--x--x--x--0--0--x--x------|
F#|--0--0--13-13-13-12--0--0--10-12-12-12--0--0---8--8--8--7--0--0--4--4--4v--|
 B|--0--0---------------0--0---------------0--0---------------0--0------------|
     pmpm               pmpm               pmpm               pmpm        PH

Chorus: Guitars 1 & 2 (Distorted)
C#|---------------------------------------------------------------------------|
G#|---------------------------------------------------------------------------|
 E|--------15-15-15-14--------12-14-14-14--------10-10-10--9--------6--6--7---|
 B|--0--0---x--x--x--x--0--0---x--x--x--x--0--0---x--x--x--x--0--0--x--x--x---|
F#|--0--0--13-13-13-12--0--0--10-12-12-12--0--0---8--8--8--7--0--0--4--4--5---|
 B|--0--0---------------0--0---------------0--0---------------0--0------------|
     pmpm               pmpm               pmpm               pmpm

Chorus: Guitars 1 & 2 (Distorted)
C#|---------------------------------------------------------------------------|
G#|---------------------------------------------------------------------------|
 E|--------15-15-15-14--------12-14-14-14--------10-10-10--9--------6--6--7---|
 B|--0--0---x--x--x--x--0--0---x--x--x--x--0--0---x--x--x--x--0--0--x--x--x---|
F#|--0--0--13-13-13-12--0--0--10-12-12-12--0--0---8--8--8--7--0--0--4--4--5---|
 B|--0--0---------------0--0---------------0--0---------------0--0------------|
     pmpm               pmpm               pmpm               pmpm

Verse 2: Guitar 1 (Clean)
C#|----------0-----0---------------------------------0------------------------|
G#|------3-----3------2----------------------3---3-----2----------------------|
 E|----2---2-----2------3------------------2-------2--------------------------|
 B|--0-----------------------------------0------------------------------------|
F#|---------------------------------------------------------------------------|
 B|---------------------------------------------------------------------------|
                                                                              |
Verse 2: Guitar 2 (Distorted)                                                 |
C#|---------------------------------------------------------------------------|
G#|---------------------------------------------------------------------------|
 E|---------------------------------------------------------------------------|
 B|--0------------------------------------------------------------------------|
F#|--0------------------------------------------------------------------------|
 B|--0------------------------------------------------------------------------|

Verse 2: Guitar 1 (Clean)
C#|----------0-----0---------------------------0--5----6---4------------------|
G#|------3-----3------2----------------------3--------------------------------|
 E|----2---2-----2------3------------------2----------------------------------|
 B|--0-----------------------------------0------------------------------------|
F#|---------------------------------------------------------------------------|
 B|---------------------------------------------------------------------------|
                                                                              |
Verse 2: Guitar 2 (Distorted)                                                 |
C#|---------------------------------------------------------------------------|
G#|---------------------------------------------------------------------------|
 E|--7----------------------------7-/9--9--------------10----/12--------------|
 B|---------------------------------------------------------------------------|
F#|---------------------------------------------------------------------------|
 B|---------------------------------------------------------------------------|
     ^-Cresendo

Verse 2: Guitar 1 (Clean)
C#|----------0-----0---------------------------0---------0--------------------|
G#|------3-----3------2----------------------3---------3---3------------------|
 E|----2---2-----2------3------------------2---------2-------2----------------|
 B|--0-----------------------------------0------------------------------------|
F#|---------------------------------------------------------------------------|
 B|---------------------------------------------------------------------------|
                                                                              |
Verse 2: Guitar 2 (Distorted)                                                 |
C#|----------8----------------8----8/10-------10/13-13--12----12h13-----------|
G#|--10-----------10-10---------10--------------------------------------------|
 E|---------------------------------------------------------------------------|
 B|---------------------------------------------------------------------------|
F#|---------------------------------------------------------------------------|
 B|---------------------------------------------------------------------------|

Verse 2: Guitar 1 (Clean)
C#|----------0-----0---------------------------0--5---------------------------|
G#|------3-----3------2----------------------3--------------------------------|
 E|----2---2-----2------3------------------2----------------------------------|
 B|--0-----------------------------------0------------------------------------|
F#|---------------------------------------------------------------------------|
 B|---------------------------------------------------------------------------|
                                                                              |
Verse 2: Guitar 2 (Distorted)                                                 |
C#|--10---------------------------------18~~~~17~~~~18~~~~20~~~~22~~--\-------|
G#|---------------------------------------------------------------------------|
 E|---------------------------------------------------------------------------|
 B|---------------------------------------------------------------------------|
F#|---------------------------------------------------------------------------|
 B|---------------------------------------------------------------------------|

Chorus: Guitars 1 & 2 (Distorted)
C#|---------------------------------------------------------------------------|
G#|---------------------------------------------------------------------------|
 E|--------15-15-15-14--------12-14-14-14--------10-10-10--9--------6--6------|
 B|--0--0---x--x--x--x--0--0---x--x--x--x--0--0---x--x--x--x--0--0--x--x------|
F#|--0--0--13-13-13-12--0--0--10-12-12-12--0--0---8--8--8--7--0--0--4--4--4v--|
 B|--0--0---------------0--0---------------0--0---------------0--0------------|
     pmpm               pmpm               pmpm               pmpm        PH

Chorus: Guitars 1 & 2 (Distorted)
C#|---------------------------------------------------------------------------|
G#|---------------------------------------------------------------------------|
 E|--------15-15-15-14--------12-14-14-14--------10-10-10--9--------6--6--7---|
 B|--0--0---x--x--x--x--0--0---x--x--x--x--0--0---x--x--x--x--0--0--x--x--x---|
F#|--0--0--13-13-13-12--0--0--10-12-12-12--0--0---8--8--8--7--0--0--4--4--5---|
 B|--0--0---------------0--0---------------0--0---------------0--0------------|
     pmpm               pmpm               pmpm               pmpm

Chorus: Guitars 1 & 2 (Distorted)
C#|---------------------------------------------------------------------------|
G#|---------------------------------------------------------------------------|
 E|--------15-15-15-14--------12-14-14-14--------10-10-10--9--------6--6--7---|
 B|--0--0---x--x--x--x--0--0---x--x--x--x--0--0---x--x--x--x--0--0--x--x--x---|
F#|--0--0--13-13-13-12--0--0--10-12-12-12--0--0---8--8--8--7--0--0--4--4--5---|
 B|--0--0---------------0--0---------------0--0---------------0--0------------|
     pmpm               pmpm               pmpm               pmpm

Bridge: Guitars 1 & 2 (Distorted)
C#|---------------------------------------------------------------------------|
G#|---------------------------------------------------------------------------|
 E|---------------------------------------------------------------------------|
 B|---------------------------------------------------------------------1-0---|
F#|--5555555555555555-77777777-8888-77-55-3333333333333333-22222222-3\--1-0---|
 B|---------------------------------------------------------------------1-0---|
     pmpmpmpmpmpmpmpmpmpmpmpmpmpmpmpmpmpmpmpmpmpmpmpmpmpmpmpmpmpmpm

Bridge: Guitars 1 & 2 (Distorted)
C#|---------------------------------------------------------------------------|
G#|---------------------------------------------------------------------------|
 E|---------------------------------------------------------------------------|
 B|---------------------------------------------------------------------1-0---|
F#|--5555555555555555-77777777-8888-77-55-3333333333333333-22222222-3\--1-0---|
 B|---------------------------------------------------------------------1-0---|
     pmpmpmpmpmpmpmpmpmpmpmpmpmpmpmpmpmpmpmpmpmpmpmpmpmpmpmpmpmpmpm


Bridge: Guitars 1 & 2 (Distorted)
C#|---------------------------------------------------------------------------|
G#|---------------------------------------------------------------------------|
 E|--7------------------------------------------------------------------------|
 B|--7------------------------------------------------------------------------|
F#|--5------------------------------------------------------------------------|
 B|--0------------------------------------------------------------------------|

Bridge: Guitar 1 (Distorted)
C#|---------------------------------------------------------------------------|
G#|---------------------------------------------------------------------------|
 E|----------------------------------7-------------------------7--------------|
 B|---------------------------------------------------------------------------|
F#|---------------------------------------------------------------------------|
 B|---------------------------------------------------------------------------|
                                     ^-Cresendo                ^-Cresendo     |
Bridge: Guitar 2 (Distorted)                                                  |
C#|---------------------------------------------------------------------------|
G#|---------------------------------------------------------------------------|
 E|--7--------------------7-/9--9---------10-------\9----\7-7-----------------|
 B|---------------------------------------------------------------------------|
F#|---------------------------------------------------------------------------|
 B|---------------------------------------------------------------------------|
     ^-Cresendo

Bridge: Guitar 1 (Distorted)
C#|---------------------------------------------------------------------------|
G#|---------------------------------------------------------------------------|
 E|----------------------------------7-------------------------7--------------|
 B|---------------------------------------------------------------------------|
F#|---------------------------------------------------------------------------|
 B|---------------------------------------------------------------------------|
                                     ^-Cresendo                ^-Cresendo     |
Bridge: Guitar 2 (Distorted)                                                  |
C#|---------------------------------------------------------------------------|
G#|---------------------------------------------------------------------------|
 E|--7--------------------7-/9--9---------10-------\9----\7-7-----------------|
 B|---------------------------------------------------------------------------|
F#|---------------------------------------------------------------------------|
 B|---------------------------------------------------------------------------|
     ^-Cresendo

Bridge: Guitar 1 (Distorted)
C#|---------------------------------------------------------------------------|
G#|---------------------------------------------------------------------------|
 E|----------------------------------7-------------------------7--------------|
 B|---------------------------------------------------------------------------|
F#|---------------------------------------------------------------------------|
 B|---------------------------------------------------------------------------|
                                     ^-Cresendo                ^-Cresendo     |
Bridge: Guitar 2 (Distorted)                                                  |
C#|---------------------------------------------------------------------------|
G#|---------------------------------------------------------------------------|
 E|--10-9-7-10-9-7-10-9-10-9-7-10-9-7-10-9-10-9-7-10-9-7-10-9-10-9-7------7-9-|
 B|------------------------------------------------------------------7107-----|
F#|---------------------------------------------------------------------------|
 B|---------------------------------------------------------------------------|

Bridge: Guitar 1 (Distorted)
C#|---------------------------------------------------------------------------|
G#|---------------------------------------------------------------------------|
 E|----------------------------------7-------------------------7--------------|
 B|---------------------------------------------------------------------------|
F#|---------------------------------------------------------------------------|
 B|---------------------------------------------------------------------------|
                                     ^-Cresendo                ^-Cresendo     |
Bridge: Guitar 2 (Distorted)                                                  |
C#|--13-121013-121013-1213-121013-121013-1213-121013-121013-1213-1210-----1012|
G#|------------------------------------------------------------------131013---|
 E|---------------------------------------------------------------------------|
 B|---------------------------------------------------------------------------|
F#|---------------------------------------------------------------------------|
 B|---------------------------------------------------------------------------|

Bridge: Guitars 1 & 2: (Distorted with Fuzz)
C#|---------------------------------------------------------------------------|
G#|---------------------------------------------------------------------------|
 E|---------------------------------------------------------------------------|
 B|--0--0---------0-0--0-0---------------0--0--------0-0--0-0-----------------|
F#|--0--0---------0-0--0-0---------------0--0--------0-0--0-0-----------------|
 B|--0--0---------0-0--0-0---------------0--0--------0-0--0-0-----------------|
     pmpm         pmpm pmpm              pmpm        pmpm pmpm                |
                                                                              |
Bridge: Guitar 2 (Distorted)                                                  |
C#|--17~~~~~~~~~~~~~~~~18~~~~~~~~~~~~~~~~16~~~~~~~~~~~~~~~--------------------|
G#|--22~~~~~~~~~~~~~~~~23~~~~~~~~~~~~~~~~21~~~~~~~~~~~~~~~15~~~~~~~~10~~~~~~--|
 E|-------------------------------------------------------19~~~~~~~~14~~~~~~--|
 B|---------------------------------------------------------------------------|
F#|---------------------------------------------------------------------------|
 B|---------------------------------------------------------------------------|

Bridge: Guitars 1 & 2: (Distorted with Fuzz)
C#|---------------------------------------------------------------------------|
G#|---------------------------------------------------------------------------|
 E|---------------------------------------------------------------------------|
 B|--0--0---------0-0--0-0---------------0--0--------0-0--0-0-----------------|
F#|--0--0---------0-0--0-0---------------0--0--------0-0--0-0-----------------|
 B|--0--0---------0-0--0-0---------------0--0--------0-0--0-0-----------------|
     pmpm         pmpm pmpm              pmpm        pmpm pmpm                |
                                                                              |
Bridge: Guitar 2 (Distorted)                                                  |
C#|--17~~~~~~~~~~~~~~~~18~~~~~~~~~~~~~~~~16~~~~~~~~~~~~~~~--------------------|
G#|--22~~~~~~~~~~~~~~~~23~~~~~~~~~~~~~~~~21~~~~~~~~~~~~~~~15~~~~~~~~10~~~~~~--|
 E|-------------------------------------------------------19~~~~~~~~14~~~~~~--|
 B|---------------------------------------------------------------------------|
F#|---------------------------------------------------------------------------|
 B|---------------------------------------------------------------------------|

Bridge: Guitar 1 (Distorted)
C#|---------------------------------------------------------------------------|
G#|---------------------------------------------------------------------------|
 E|------------------------15-15-15-14---------------------------12-14-14-14--|
 B|--0--0---------0-0--0-0--x--x--x--x---0--0--------0-0--0-0-----x--x--x--x--|
F#|--0--0---------0-0--0-0-13-13-13-12---0--0--------0-0--0-0----10-12-12-12--|
 B|--0--0---------0-0--0-0---------------0--0--------0-0--0-0-----------------|
     pmpm         pmpm pmpm              pmpm        pmpm pmpm                |
                                                                              |
Bridge: Guitar 2 (Distorted)                                                  |
C#|--17~~~~~~~~~~~~~~~~18~~~~~~~~~~~~~~~~16~~~~~~~~~~~~~~~--------------------|
G#|--22~~~~~~~~~~~~~~~~23~~~~~~~~~~~~~~~~21~~~~~~~~~~~~~~~15~~~~~~~~10~~~~~~--|
 E|-------------------------------------------------------19~~~~~~~~14~~~~~~--|
 B|---------------------------------------------------------------------------|
F#|---------------------------------------------------------------------------|
 B|---------------------------------------------------------------------------|

Bridge: Guitar 1 (Distorted)
C#|---------------------------------------------------------------------------|
G#|---------------------------------------------------------------------------|
 E|------------------------10-10-10--9---------------------------6--6--7------|
 B|--0--0---------0-0--0-0--x--x--x--x---0--0--------0-0--0-0----x--x--x------|
F#|--0--0---------0-0--0-0--8--8--8--7---0--0--------0-0--0-0----4--4--5------|
 B|--0--0---------0-0--0-0---------------0--0--------0-0--0-0-----------------|
     pmpm         pmpm pmpm              pmpm        pmpm pmpm                |
                                                                              |
Bridge: Guitar 2 (Distorted)                                                  |
C#|--17~~~~~~~~~~~~~~~~18~~~~~~~~~~~~~~~~16~~~~~~~~~~~~~~~--------------------|
G#|--22~~~~~~~~~~~~~~~~23~~~~~~~~~~~~~~~~21~~~~~~~~~~~~~~~15~~~~~~~~10~~~~~~--|
 E|-------------------------------------------------------19~~~~~~~~14~~~~~~--|
 B|---------------------------------------------------------------------------|
F#|---------------------------------------------------------------------------|
 B|---------------------------------------------------------------------------|

Post Bridge: Guitar 1 (Distorted)
C#|---------------------------------------------------------------------------|
G#|---------------------------------------------------------------------------|
 E|---------------------------------------------------------------------------|
 B|---------------------------------------------------------------------------|
F#|-------------------------------3p0-8p0------------------------------3p0-8p0|
 B|--0-0000-0--0-0000-0--0-0000-0---------0-0000-0--0-0000-0--0-0000-0--------|
                                      PH                                   PH

Post Bridge: Guitar 1 (Distorted)
C#|---------------------------------------------------------------------------|
G#|---------------------------------------------------------------------------|
 E|---------------------------------------------------------------------------|
 B|---------------------------------------------------------------------------|
F#|-------------------------------3p0-8p0------------------------------3p0-8p0|
 B|--0-0000-0--0-0000-0--0-0000-0---------0-0000-0--0-0000-0--0-0000-0--------|
                                      PH                                   PH

Chorus: Guitars 1 & 2 (Distorted)
C#|---------------------------------------------------------------------------|
G#|---------------------------------------------------------------------------|
 E|--------15-15-15-14--------12-14-14-14--------10-10-10--9--------6--6--7---|
 B|--0--0---x--x--x--x--0--0---x--x--x--x--0--0---x--x--x--x--0--0--x--x--x---|
F#|--0--0--13-13-13-12--0--0--10-12-12-12--0--0---8--8--8--7--0--0--4--4--5---|
 B|--0--0---------------0--0---------------0--0---------------0--0------------|
     pmpm               pmpm               pmpm               pmpm

Chorus: Guitars 1 & 2 (Distorted)
C#|---------------------------------------------------------------------------|
G#|---------------------------------------------------------------------------|
 E|--------15-15-15-14--------12-14-14-14--------10-10-10--9--------6--6--7---|
 B|--0--0---x--x--x--x--0--0---x--x--x--x--0--0---x--x--x--x--0--0--x--x--x---|
F#|--0--0--13-13-13-12--0--0--10-12-12-12--0--0---8--8--8--7--0--0--4--4--5---|
 B|--0--0---------------0--0---------------0--0---------------0--0------------|
     pmpm               pmpm               pmpm               pmpm

Outro: Guitars 1 & 2 (Distorted)
C#|---------------------------------------------------------------------------|
G#|---------------------------------------------------------------------------|
 E|---------------------------------------------------------------------------|
 B|---------------------------------------------------------------------1-0---|
F#|--5555555555555555-77777777-8888-77-55-3333333333333333-22222222-3\--1-0---|
 B|---------------------------------------------------------------------1-0---|
     pmpmpmpmpmpmpmpmpmpmpmpmpmpmpmpmpmpmpmpmpmpmpmpmpmpmpmpmpmpmpm


Outro: Guitars 1 & 2 (Distorted)
C#|---------------------------------------------------------------------------|
G#|---------------------------------------------------------------------------|
 E|---------------------------------------------------------------------------|
 B|---------------------------------------------------------------------1-0---|
F#|--5555555555555555-77777777-8888-77-55-3333333333333333-22222222-3\--1-0---|
 B|---------------------------------------------------------------------1-0---|
     pmpmpmpmpmpmpmpmpmpmpmpmpmpmpmpmpmpmpmpmpmpmpmpmpmpmpmpmpmpmpm


Outro: Guitars 1 & 2 (Distorted)
C#|---------------------------------------------------------------------------|
G#|---------------------------------------------------------------------------|
 E|---------------------------------------------------------------------------|
 B|---------------------------------------------------------------------1-0---|
F#|--5555555555555555-77777777-8888-77-55-3333333333333333-22222222-3\--1-0---|
 B|---------------------------------------------------------------------1-0---|
     pmpmpmpmpmpmpmpmpmpmpmpmpmpmpmpmpmpmpmpmpmpmpmpmpmpmpmpmpmpmpm


Outro: Guitars 1 & 2 (Distorted)
C#|---------------------------------------------------------------------------|
G#|---------------------------------------------------------------------------|
 E|---------------------------------------------------------------------------|
 B|---------------------------------------------------------------------1-0---|
F#|--5555555555555555-77777777-8888-77-55-3333333333333333-22222222-3\--1-0---|
 B|---------------------------------------------------------------------1-0---|
     pmpmpmpmpmpmpmpmpmpmpmpmpmpmpmpmpmpmpmpmpmpmpmpmpmpmpmpmpmpmpm

Outro: Guitars 1 & 2 (Distorted)
C#|---------------------------------------------------------------------------|
G#|---------------------------------------------------------------------------|
 E|---------------------------------------------------------------------------|
 B|--------------------------------------------------------------------1-0-1-3|
F#|--5555555555555555-77777777-8888-77-55-3333333333333333-22222222-3\-1-0-1-3|
 B|--------------------------------------------------------------------1-0-1-3|

Outro: Guitars 1 & 2 (Distorted)
C#|---------------------------------------------------------------------------|
G#|---------------------------------------------------------------------------|
 E|---------------------------------------------------------------------------|
 B|---------------------------------------------------------------------------|
F#|---------------------------------------------------------------------------|
 B|--0-0-0-0--3-0---0-0-0-0--3-0---0-0-0-0--3-0---0-0-0-0--3-0----------------|

FINISHED!

http://www.sicmonic.com/

http://www.myspace.com/sicmonic

Tap to rate this tab
 
# A B C D E F G H I J K L M N O P Q R S T U V W X Y Z