Song name
# A B C D E F G H I J K L M N O P Q R S T U V W X Y Z

Sid Vicious - Something Else tab

Song: Something Else
Artist: Sid Vicious
Album: Sid Sings

Tabbed by Duke Lukem

Intro

e -------------------------------|
B -------------------------------|
G ------6-7-7-7-6-7-7-7-6-7-7-7--|
D ------6-7-7-7-6-7-7-7-6-7-7-7--|
A ----4-4-5-5-5-4-5-5-5-4-5-5-5--|
E 5-7----------------------------|

e -------------------------------------|
B -------------------------------------|
G ------6-7-7-7-6-7-7-7--7-7-7-7-7-7-7-|
D ------6-7-7-7-6-7-7-7--7-7-7-7-7-7-7-|
A ----4-4-5-5-5-4-5-5-5--7-7-7-7-7-7-7-|
E 5-7--------------------5-5-5-5-5-5-5-|


Verse


e -----------|
B -----------|
G 7-7*--7-7*-|
D 7-7*--7-7*-|
A 5-5*--5-5*-|
E -----------|

e --------------------------------|
B --------------------------------|
G ------6-7-7-7-6-7-7-7-6-7-7-7-7-|
D ------6-7-7-7-6-7-7-7-6-7-7-7-7-|
A ----4-4-5-5-5-4-5-5-5-4-5-5-5-5-| 
E 5-7-----------------------------|

e ---------------------------------------|
B ---------------------------------------|
G ------6-7-7-7-6-7-7-7-6-7-7-7-7-7-7-7--|
D ------6-7-7-7-6-7-7-7-6-7-7-7-7-7-7-7--|
A ----4-4-5-5-5-4-5-5-5-4-5-5-5-5-5-5-5--| 
E 5-7------------------------------------|

e -------------------|
B -------------------|
G -------------------|
D 7     5     7    5-|
A 7 x16 5 x16 7 x8 5-|
E 5     3     5    3-|

e ---------|
B ---------|
G -7*---7*-|
D -7*---7*-|
A -5*---5*-|
E ---------|


Break


e -------------------------------|
B -------------------------------|
G ------6-7-7-7-6-7-7-7-6-7-7-7--|
D ------6-7-7-7-6-7-7-7-6-7-7-7--|
A ----4-4-5-5-5-4-5-5-5-4-5-5-5--|
E 5-7----------------------------|

e -------------------------------------|
B -------------------------------------|
G ------6-7-7-7-6-7-7-7--7-7-7-7-7-7-7-|
D ------6-7-7-7-6-7-7-7--7-7-7-7-7-7-7-|
A ----4-4-5-5-5-4-5-5-5--7-7-7-7-7-7-7-|
E 5-7--------------------5-5-5-5-5-5-5-|


Verse 2


e -----------|
B -----------|
G 7-7*--7-7*-|
D 7-7*--7-7*-|
A 5-5*--5-5*-|
E -----------|

e --------------------------------|
B --------------------------------|
G ------6-7-7-7-6-7-7-7-6-7-7-7-7-|
D ------6-7-7-7-6-7-7-7-6-7-7-7-7-|
A ----4-4-5-5-5-4-5-5-5-4-5-5-5-5-| 
E 5-7-----------------------------|

e ---------------------------------------|
B ---------------------------------------|
G ------6-7-7-7-6-7-7-7-6-7-7-7-7-7-7-7--|
D ------6-7-7-7-6-7-7-7-6-7-7-7-7-7-7-7--|
A ----4-4-5-5-5-4-5-5-5-4-5-5-5-5-5-5-5--| 
E 5-7------------------------------------|

e -------------------|
B -------------------|
G -------------------|
D 7     5     7    5-|
A 7 x16 5 x16 7 x8 5-|
E 5     3     5    3-|

e ---------|
B ---------|
G -7*---7*-|
D -7*---7*-|
A -5*---5*-|
E ---------|


Break


e -------------------------------|
B -------------------------------|
G ------6-7-7-7-6-7-7-7-6-7-7-7--|
D ------6-7-7-7-6-7-7-7-6-7-7-7--|
A ----4-4-5-5-5-4-5-5-5-4-5-5-5--|
E 5-7----------------------------|

e -------------------------------------|
B -------------------------------------|
G ------6-7-7-7-6-7-7-7--7-7-7-7-7-7-7-|
D ------6-7-7-7-6-7-7-7--7-7-7-7-7-7-7-|
A ----4-4-5-5-5-4-5-5-5--7-7-7-7-7-7-7-|
E 5-7--------------------5-5-5-5-5-5-5-|


Verse 3


e -----------|
B -----------|
G 7-7*--7-7*-|
D 7-7*--7-7*-|
A 5-5*--5-5*-|
E -----------|

e --------------------------------|
B --------------------------------|
G ------6-7-7-7-6-7-7-7-6-7-7-7-7-|
D ------6-7-7-7-6-7-7-7-6-7-7-7-7-|
A ----4-4-5-5-5-4-5-5-5-4-5-5-5-5-| 
E 5-7-----------------------------|

e ---------------------------------------|
B ---------------------------------------|
G ------6-7-7-7-6-7-7-7-6-7-7-7-7-7-7-7--|
D ------6-7-7-7-6-7-7-7-6-7-7-7-7-7-7-7--|
A ----4-4-5-5-5-4-5-5-5-4-5-5-5-5-5-5-5--| 
E 5-7------------------------------------|

e -------------------|
B -------------------|
G -------------------|
D 7     5     7    5-|
A 7 x16 5 x16 7 x8 5-|
E 5     3     5    3-|

e ---------|
B ---------|
G -7*---7*-|
D -7*---7*-|
A -5*---5*-|
E ---------|


Break


e -------------------------------|
B -------------------------------|
G ------6-7-7-7-6-7-7-7-6-7-7-7--|
D ------6-7-7-7-6-7-7-7-6-7-7-7--|
A ----4-4-5-5-5-4-5-5-5-4-5-5-5--|
E 5-7----------------------------|

e -------------------------------------|
B -------------------------------------|
G ------6-7-7-7-6-7-7-7--7-7-7-7-7-7-7-|
D ------6-7-7-7-6-7-7-7--7-7-7-7-7-7-7-|
A ----4-4-5-5-5-4-5-5-5--7-7-7-7-7-7-7-|
E 5-7--------------------5-5-5-5-5-5-5-|


Verse 4


e -----------|
B -----------|
G 7-7*--7-7*-|
D 7-7*--7-7*-|
A 5-5*--5-5*-|
E -----------|

e --------------------------------|
B --------------------------------|
G ------6-7-7-7-6-7-7-7-6-7-7-7-7-|
D ------6-7-7-7-6-7-7-7-6-7-7-7-7-|
A ----4-4-5-5-5-4-5-5-5-4-5-5-5-5-| 
E 5-7-----------------------------|

e ---------------------------------------|
B ---------------------------------------|
G ------6-7-7-7-6-7-7-7-6-7-7-7-7-7-7-7--|
D ------6-7-7-7-6-7-7-7-6-7-7-7-7-7-7-7--|
A ----4-4-5-5-5-4-5-5-5-4-5-5-5-5-5-5-5--| 
E 5-7------------------------------------|

e -------------------|
B -------------------|
G -------------------|
D 7     5     7    5-|
A 7 x16 5 x16 7 x8 5-|
E 5     3     5    3-|

e ---------|
B ---------|
G -7*---7*-|
D -7*---7*-|
A -5*---5*-|
E ---------|


Outro


e -------------------------------|
B -------------------------------|
G ------6-7-7-7-6-7-7-7-6-7-7-7--|
D ------6-7-7-7-6-7-7-7-6-7-7-7--| play this 4 times
A ----4-4-5-5-5-4-5-5-5-4-5-5-5--|
E 5-7----------------------------|


v = vibrato
m = play note then mute
x = dead note
b = bend 
* = let ring
pm* = palm mute
br = bend and release
Tap to rate this tab
 
# A B C D E F G H I J K L M N O P Q R S T U V W X Y Z