Song name
# A B C D E F G H I J K L M N O P Q R S T U V W X Y Z

Sid Vicious - Tight Pants tab

SID VICIOUS as recorded live at CBGB's
"TIGHT PANTS"

just a song I heard on a Sid Vicious album recorded live at CBGB's.   
If you have the song, just listen to it. ENJOY!


 


|--------------------------------------------|                      
|--------------------------------------------|
|-----------------------------3-3-3----------|
|-3-3-3-3-----1--3-3-3-3------3-3-3-3-3-3-3--|
|-3-3-3-3--1-3---3-3-3-3------1-1-1-3-3-3-3--|
|-1-1-1-1--------1-1-1-1------------1-1-1-1--|

|------------------------|
|------------------------|
|--5-5-5--3-3-3----------|
|--5-5-5--3-3-3--3-3-3-3-|
|--3-3-3--1-1-1--3-3-3-3-|
|----------------1-1-1-1-|
Tap to rate this tab
# A B C D E F G H I J K L M N O P Q R S T U V W X Y Z