Song name
# A B C D E F G H I J K L M N O P Q R S T U V W X Y Z

Side A - It Might Be You tab

==========================================
             It might be you...
==========================================

Hi I'm Jeff, 14, cute.... I dedicate this song to Ma. Liezette Fandino...
Luv n luv ko yan... Txt me na lang kung may complain d2 sa song na e2
(09184372040)...

Standard Tuning: EADGBe

Legends:
Slide: /                     x: dead string
Hammer: H                    0: open string

Intro:
e|---------------------|--------------------|
B|---------------------|--------------------|
G|------0---2--2H4--0--|------0---2--2H4--0-|
D|-----0-0-------------|-----0-0------------|
A|---------------------|--2-----------------|
E|---3-----------------|--------------------|               }2x

e|---------------------|---------------------------|
B|---------------------|---------------------------|
G|------0---2--2H4--0--|------0-----0H2--0------0--|
D|-----0-0-------------|-----0-0------------0H2----|
A|--3------------------|---------------------------|
E|---------------------|---3-----------------------|
Body:
             Strum na d2 sa Part na e2... 
e|---3----|--------|--------|
B|---3----|--------|--------|
G|---3----|---4----|---5----|2x ung 355...
D|---5----|---4----|---5----|
A|---5----|---2----|---3----|
E|---3----|---x----|---x----|
Chorus:
e|----2----|----4----|----6----|----4----|----2----|
B|----2----|----4----|----6----|----4----|----2----|
G|----2----|----4----|----6----|----4----|----2----|
D|----4----|----6----|----8----|----6----|----4----|
A|----4----|----6----|----8----|----6----|----4----|
E|----2----|----4----|----6----|----4----|----2----|
...Telling     me     it might    be       you



Un Lng Tnx .... Jaz txt me pag my Complain....
     
Tap to rate this tab
# A B C D E F G H I J K L M N O P Q R S T U V W X Y Z