Song name
# A B C D E F G H I J K L M N O P Q R S T U V W X Y Z

Side A - Forevermore chords

Forevermore by Side A
tabbed by craftoon_1352
09395644435
klavenders13@yahoo.com
message: this is not fit to the song but i guess its good to hear
         this tab are good for a novice like me, enjoy guys and
         watch for my video in you tube on how i play this tab
intro
e|---------0-------0--0--------|
B|----------------0--0---------|
G|--1h2--4-----2---------------|(2x)
D|-----------------------------|
A|-------5-----4---------------|
E|-0---------------------------|
verse:
e|----------------2-0-----------0--|---------------|
B|----2-0-0-0-2-4--------2-0--2----|---------------|
G|--1------------------1-----------|-0h2-4-2-0-0---|
D|---------------------------------|-------------4-|
A|----------4-------2------0-------|-----------2---|
E|-0----4--------------------------|-2-------------|

e|----------------2-0-----------0--|-----------0----|
B|----2-0-0-0-2-4--------2-0--2----|-------------4--|
G|--1------------------1-----------|-0h2-4-2-0------|
D|---------------------------------|----------------|
A|----------4-------2------0-------|-----------2-2--|
E|-0----4--------------------------|-2--------------|
refrain:
e|---0-------4-2-2p0------------------------|
B|-2---0----5---------2-2/4-2h0-0----0--0---|
G|---------6--------------------------------|
D|--------6---------------------------------|
A|-4------------------------0---------------|
E|-------------2------2------------4---2----|
Chorus:
e|----0-2-2/4-4-2-4-0--------0-2-2h4/5-2-4-0---0-2-4/5-5/7-7-5---2h0 2h4-0-|
B|-0h2---------------------0-----------------------------------------------|
G|-------------------------------------------------------------------------|
D|-------------------------------------------------------------------------|
A|-2-----------------------------------------------2-----------------0---0-|
E|--------0-----4---5-4-2--------0-----4---5-4-2-------0-----0-------------|
(*)
e|-------2-0----------------------|
B|-4-2-0--------2-0-0-----0-------|
G|--------------------1-2---------|
D|--------------------------------|
A|---------4--------2-------------|
E|-----4------2-------------------|
(repeat intro)
e|----------------------------|
B|----------------------------|
G|----------------------------|
D|-0--------------------------|
A|---3-2-0--------------------|
E|---------3-2-0--------------|

verse:
e|----------------2-0-----------0--|---------------|
B|----2-0-0-0-2-4--------2-0--2----|---------------|
G|--1------------------1-----------|-0h2-4-2-0-0---|
D|---------------------------------|-------------4-|
A|----------4-------2------0-------|-----------2---|
E|-0----4--------------------------|-2-------------|

e|--0-------------2-0-----------0--|-----------0----|
B|----2-0-0-0-2-4--------2-0--2----|-------------4--|
G|---------------------1-----------|-0h2-4-2-0------|
D|---------------------------------|----------------|
A|----------4-------2------0-------|-----------2-2--|
E|-0----4--------------------------|-2--------------|
repeat refrain and chorus

bridge:
e|--------3---3-2-0-0-0---------------2-2h3-2--0--|
B|----------3-----------3---3-1-0--0-2-----------3|
G|--------------------------------2---------------|
D|--------------------------------------0---------|
A|--------3---3-------5-5-------------0-----------|
E|-3-2-0--------------------2-----0------------3--|

e|-------3-2-3-3/5---3-2---3--3/5-3p0-0----|
B|-----0-----------3-----3-----------------|
G|-----------------------------------------|
D|---------------------0---0---------------|
A|--------------------------------3-----3--|
E|-3-2---0-----0---------------------------|

e|-----------0-2-4-5-5/7----------|
B|-----0-1-3----------------------|
G|-2-1----------------------------|
D|-------0------------------------|
A|-0------------------------------|
E|---------------------0----------|
interlude:
e|----------------2-0-----------0--|---------------|
B|----2-0-0-0-2-4--------2-0--2----|---------------|
G|--1------------------1-----------|-0h2-4-2-0-0---|
D|---------------------------------|-------------4-|
A|----------4-------2------0-------|-----------2---|
E|-0----4--------------------------|-2-------------|

e|----------------0-0-2-4-0-7-5-4/5-|
B|----2-0-0-0-2-4-------------------|
G|--1-------------------------------|
D|----------------------------------|
A|----------4-------2-------0-----0-|
E|-0----4---------------------------|

e|-0-2-4-2-0-----------------------|
B|-----------4-2-0-0-2-4-0-2-------|
G|---------------------------------|
D|---------------------------------|
A|---------2---2-----------4-------|
E|-2-----2-------------------------|
repeat refrain and chorus except *
e|-------2-0--------------------2-0-----------|
B|-4-2-0------------4---4-4-2-0-------2b0-4---|
G|--------------2b0---------------------------|
D|--------------------------------------------|
A|---------4--------2-------------4-1-----2---|
E|-----4------2---------------4---------------|
repeat * then intro
e|-3-----3-2----2---------0-------|
B|-3---3-3-2--2-2---------0-------|
G|---0-------2------------2-------|
D|------------------------0-------|
A|------------------------1-------|
E|-3-----3-2----2-----3-2-0-------|
                    thats it
so far thats what can i do, watch for my video on how i play it
Tap to rate this tab
# A B C D E F G H I J K L M N O P Q R S T U V W X Y Z