Song name
# A B C D E F G H I J K L M N O P Q R S T U V W X Y Z

Side A - Just Wanna Be With You tab

E|------------------------0---------|
B|----------0----2----0-------------|
G|1---------------------------------|
D|-------2--------------------------|
A|-----2----------------------------|
E|---0------------------------------|

E|------------0--3--2--0----------0-|  
B|--------2--------------2--0-------|
G|------2----------------------0----|
D|----2-----------------------------|
A|--0-------------------------------|
E|----------------------------------|

E|----0----0---------0--------0-----|  
B|---0----2----2----1---1----0------|
G|--0----2----2----2---2----1-------|
D|-0----2----2----2---2----2--------|
A|------------------------2---------|
E|-----------------------0----------|

|
Tap to rate this tab
 
# A B C D E F G H I J K L M N O P Q R S T U V W X Y Z