Song name
# A B C D E F G H I J K L M N O P Q R S T U V W X Y Z

Side A - Tell Me Acoustic tab

----------------------------------------------------------------------------
			Tell Me (Acoustic Version)– Side A
----------------------------------------------------------------------------

Artist		:	Side A (Originally By Joey Albert)
Song		:	Tell Me (Acoustic Version)
Date		:	December 16, 2005 
Transcribed By	:	Christian Fel P. Custuna
Email		:	tian09270@yahoo.com, 09179290196

Note		:	This version is transcribed for a solo guitarist, 
                        no lead/adlib at all and it differs from the
                        version of Side A as they play, because this one 
                        goes for an acoustic, hope this could help to all 
                        of us… I’m open to hear from all your suggestions 
                        and comments about this tablature, just kindly 
                        email me at tian09270@yahoo.com  
                        Play with all your heart and +God Bless us all.

Tuning		:	(Standard Tuning)
   
Capo		:	No Capo



Intro		:

   
e|-0-----0-|-0-----|-0-0-1-0---|-----|---0--|-----------|------2-|---1-|
B|-----0---|-----0-|---------1-|-3---|-3---0|-----3---0-|-3------|-3---|
G|---0-----|---0---|-----------|---0-|------|-5-----5---|-2------|-2---|
D|---------|-------|-----------|-----|------|-5---------|--------|-----|
A|-3-------|-2-----|---0-------|-2---|------|-----------|--------|-----|
E|---------|-------|-----------|-----|-0----|-5---------|-2------|-3---|





Verse 1		:



e|-0-----|-0-----|-------3-|-------|---------|-----3-|-------2-|-------0---|
B|-----0-|-------|---------|-----3-|-------3-|-------|-----3---|-----3---3-|
G|---0---|---4---|-----5---|---4---|-----4---|-------|---2-----|---2-------|
D|-------|-------|---5-----|-------|---------|---5---|---------|-----------|
A|-3-----|-2-----|---------|-2-----|---------|-------|---------|-----------|
E|-------|-------|-5-------|-------|-4-------|-5-----|-2-------|-3---------|

 There are nights when I can’t help but cry, and I wonder why you have to   
 leave me.

e|-0-----|-0-----|-------3-|-------|---------|-----3-|-------2-|-------0---|
B|-----0-|-------|---------|-----3-|-------3-|-------|-----3---|-----3---3-|
G|---0---|---4---|-----5---|---4---|---4-----|-------|---2-----|---2-------|
D|-------|-------|---5-----|-------|---------|---5---|---------|-----------|
A|-3-----|-2-----|---------|-2-----|---------|-------|---------|-----------|
E|-------|-------|-5-------|-------|-4-------|-5-----|-2-------|-3---------|

 Why 	  did	   it have to end so soon, When you said that you would 
 never leave me


Chorus		:


e|-3-----3-|-3---0-|---------|-3---0-|---------|-3---------|-------0-5-|
B|-3---3---|-3-3---|-0-1-0---|-3-3---|-0-1-0---|-3-3---5-3-|-----0-----|
G|---0-----|-0-----|-2-----2-|-0-----|-2-----2-|-----5-5---|---5-------|
D|---------|-------|-3-------|-------|-3-------|-------0---|-----------|
A|---------|-0-----|---------|-------|---------|-----0-----|-----------|
E|-0-------|-------|---------|-0-----|---------|-0---------|-3---------|

 Tell  me    Where did I go wrong, What did I do to make you change your 
 mind completely.  





e|-3-----3|-3---0-|---------|-3---0-|---------|-3--------|-----1-3-|-------|
B|-3---3--|-3-3---|-0-1-0---|-3-3---|-0-1-0---|-3-3---5--|-----1---|-----0-|
G|---0----|-0-----|-2-----2-|-0-----|-2-----2-|-----5-5--|---2-----|---2-2-|
D|--------|-------|-3-------|-------|-3-------|----------|-0-------|-------|
A|--------|-0-----|---------|-------|---------|-----0----|---------|-------|
E|-0------|-------|---------|-0-----|---------|-0--------|---------|-3---3-|

 And I thought this love would never end, but if this love not ours to have 
 I let it go with your 



e|-0-----0---|
B|-----0---0-|
G|---0-------|
D|-----------|
A|-3---------|
E|-----------|

 goodbye.






Second Intro		:

e|-0-----0-|-0-----|-0-0-1-0---|-----|---0--|-----------|------2-|---1-|
B|-----0---|-----0-|---------1-|-3---|-3---0|-----3---0-|-3------|-3---|
G|---0-----|---0---|-----------|---0-|------|-5-----5---|-2------|-2---|
D|---------|-------|-----------|-----|------|-5---------|--------|-----|
A|-3-------|-2-----|---0-------|-2---|------|-----------|--------|-----|
E|---------|-------|-----------|-----|-0----|-5---------|-2------|-3---|



e|-0-----|-0-----|-------3-|-------|---------|-----3-|-------2-|-------0---|
B|-----0-|-------|---------|-----3-|-------3-|-------|-----3---|-----3---3-|
G|---0---|---4---|-----5---|---4---|---4-----|-------|---2-----|---2-------|
D|-------|-------|---5-----|-------|---------|---5---|---------|-----------|
A|-3-----|-2-----|---------|-2-----|---------|-------|---------|-----------|
E|-------|-------|-5-------|-------|-4-------|-5-----|-2-------|-3---------|

 Why 	  did	   it have to end so soon, When you said that you would 
 never leave me



Chorus		:

e|-3-----3-|-3---0-|---------|-3---0-|---------|-3---------|-------0-5-|
B|-3---3---|-3-3---|-0-1-0---|-3-3---|-0-1-0---|-3-3---5-3-|-----0-----|
G|---0-----|-0-----|-2-----2-|-0-----|-2-----2-|-----5-5---|---5-------|
D|---------|-------|-3-------|-------|-3-------|-------0---|-----------|
A|---------|-0-----|---------|-------|---------|-----0-----|-----------|
E|-0-------|-------|---------|-0-----|---------|-0---------|-3---------|

 Tell  me    Where did I go wrong, What did I do to make you change your 
 mind completely.
  
e|-3-----3|-3---0-|---------|-3---3-|---------|-3---------|-----1-3-|------|
B|-3---3--|-3-3---|-0-1-0---|-3-3---|-0-1-0---|-3-3---5---|-----1---|-----0|
G|---0----|-0-----|-2-----2-|-0-----|-2-----2-|-----5-5---|---2-----|---2-2|
D|--------|-------|-3-------|-------|-3-------|-----------|-0-------|------|
A|--------|-0-----|---------|-------|---------|-----0-----|---------|------|
E|-0------|-------|---------|-0-----|---------|-0---------|---------|-3---3|

 And I thought this love would never end, but if this love not ours to have 
 I let it go with your……


   
e|-0-----0---|-0-|
B|-----0---0-|-0-|
G|---0-------|-0-|
D|-----------|-2-|
A|-3---------|-3-|
E|-----------|---|

 goodbye.
Tap to rate this tab
# A B C D E F G H I J K L M N O P Q R S T U V W X Y Z